  0
SECTION
  2
HEADER
  9
$ACADVER
  1
AC1015
  9
$ACADMAINTVER
 70
     6
  9
$DWGCODEPAGE
  3
ANSI_1254
  9
$INSBASE
 10
0.0
 20
0.0
 30
0.0
  9
$EXTMIN
 10
0.0
 20
0.0
 30
0.0
  9
$EXTMAX
 10
279.4
 20
215.9
 30
0.0
  9
$LIMMIN
 10
0.0
 20
0.0
  9
$LIMMAX
 10
279.4
 20
215.9
  9
$ORTHOMODE
 70
     0
  9
$REGENMODE
 70
     1
  9
$FILLMODE
 70
     1
  9
$QTEXTMODE
 70
     0
  9
$MIRRTEXT
 70
     1
  9
$LTSCALE
 40
1.0
  9
$ATTMODE
 70
     1
  9
$TEXTSIZE
 40
3.5
  9
$TRACEWID
 40
1.0
  9
$TEXTSTYLE
  7
Standard
  9
$CLAYER
  8
0
  9
$CELTYPE
  6
ByLayer
  9
$CECOLOR
 62
   256
  9
$CELTSCALE
 40
1.0
  9
$DISPSILH
 70
     0
  9
$DIMSCALE
 40
1.0
  9
$DIMASZ
 40
3.5
  9
$DIMEXO
 40
1.0
  9
$DIMDLI
 40
3.75
  9
$DIMRND
 40
0.0
  9
$DIMDLE
 40
0.0
  9
$DIMEXE
 40
1.0
  9
$DIMTP
 40
0.0
  9
$DIMTM
 40
0.0
  9
$DIMTXT
 40
3.5
  9
$DIMCEN
 40
2.5
  9
$DIMTSZ
 40
0.0
  9
$DIMTOL
 70
     0
  9
$DIMLIM
 70
     0
  9
$DIMTIH
 70
     1
  9
$DIMTOH
 70
     1
  9
$DIMSE1
 70
     0
  9
$DIMSE2
 70
     0
  9
$DIMTAD
 70
     1
  9
$DIMZIN
 70
     0
  9
$DIMBLK
  1

  9
$DIMASO
 70
     1
  9
$DIMSHO
 70
     1
  9
$DIMPOST
  1

  9
$DIMAPOST
  1

  9
$DIMALT
 70
     0
  9
$DIMALTD
 70
     3
  9
$DIMALTF
 40
0.0393700787
  9
$DIMLFAC
 40
1.0
  9
$DIMTOFL
 70
     1
  9
$DIMTVP
 40
0.0
  9
$DIMTIX
 70
     0
  9
$DIMSOXD
 70
     0
  9
$DIMSAH
 70
     0
  9
$DIMBLK1
  1

  9
$DIMBLK2
  1

  9
$DIMSTYLE
  2
ISO-25
  9
$DIMCLRD
 70
     0
  9
$DIMCLRE
 70
     0
  9
$DIMCLRT
 70
     0
  9
$DIMTFAC
 40
1.0
  9
$DIMGAP
 40
1.524
  9
$DIMJUST
 70
     0
  9
$DIMSD1
 70
     0
  9
$DIMSD2
 70
     0
  9
$DIMTOLJ
 70
     0
  9
$DIMTZIN
 70
     0
  9
$DIMALTZ
 70
     0
  9
$DIMALTTZ
 70
     0
  9
$DIMUPT
 70
     0
  9
$DIMDEC
 70
     2
  9
$DIMTDEC
 70
     2
  9
$DIMALTU
 70
     2
  9
$DIMALTTD
 70
     3
  9
$DIMTXSTY
  7
Standard
  9
$DIMAUNIT
 70
     0
  9
$DIMADEC
 70
     2
  9
$DIMALTRND
 40
0.0
  9
$DIMAZIN
 70
     0
  9
$DIMDSEP
 70
    44
  9
$DIMATFIT
 70
     3
  9
$DIMFRAC
 70
     0
  9
$DIMLDRBLK
  1

  9
$DIMLUNIT
 70
     2
  9
$DIMLWD
 70
    -2
  9
$DIMLWE
 70
    -2
  9
$DIMTMOVE
 70
     0
  9
$LUNITS
 70
     2
  9
$LUPREC
 70
     2
  9
$SKETCHINC
 40
1.0
  9
$FILLETRAD
 40
10.0
  9
$AUNITS
 70
     0
  9
$AUPREC
 70
     2
  9
$MENU
  1
.
  9
$ELEVATION
 40
0.0
  9
$PELEVATION
 40
0.0
  9
$THICKNESS
 40
0.0
  9
$LIMCHECK
 70
     0
  9
$CHAMFERA
 40
0.0
  9
$CHAMFERB
 40
0.0
  9
$CHAMFERC
 40
0.0
  9
$CHAMFERD
 40
0.0
  9
$SKPOLY
 70
     0
  9
$TDCREATE
 40
2459741.601737083
  9
$TDUCREATE
 40
2459741.476737083
  9
$TDUPDATE
 40
2459741.601737269
  9
$TDUUPDATE
 40
2459741.476737269
  9
$TDINDWG
 40
0.0000000116
  9
$TDUSRTIMER
 40
0.0000000116
  9
$USRTIMER
 70
     1
  9
$ANGBASE
 50
0.0
  9
$ANGDIR
 70
     0
  9
$PDMODE
 70
     0
  9
$PDSIZE
 40
-1.0
  9
$PLINEWID
 40
0.0
  9
$SPLFRAME
 70
     0
  9
$SPLINETYPE
 70
     6
  9
$SPLINESEGS
 70
     8
  9
$HANDSEED
  5
12A
  9
$SURFTAB1
 70
     6
  9
$SURFTAB2
 70
     6
  9
$SURFTYPE
 70
     6
  9
$SURFU
 70
     6
  9
$SURFV
 70
     6
  9
$UCSBASE
  2

  9
$UCSNAME
  2

  9
$UCSORG
 10
0.0
 20
0.0
 30
0.0
  9
$UCSXDIR
 10
1.0
 20
0.0
 30
0.0
  9
$UCSYDIR
 10
0.0
 20
1.0
 30
0.0
  9
$UCSORTHOREF
  2

  9
$UCSORTHOVIEW
 70
     0
  9
$UCSORGTOP
 10
0.0
 20
0.0
 30
0.0
  9
$UCSORGBOTTOM
 10
0.0
 20
0.0
 30
0.0
  9
$UCSORGLEFT
 10
0.0
 20
0.0
 30
0.0
  9
$UCSORGRIGHT
 10
0.0
 20
0.0
 30
0.0
  9
$UCSORGFRONT
 10
0.0
 20
0.0
 30
0.0
  9
$UCSORGBACK
 10
0.0
 20
0.0
 30
0.0
  9
$PUCSBASE
  2

  9
$PUCSNAME
  2

  9
$PUCSORG
 10
0.0
 20
0.0
 30
0.0
  9
$PUCSXDIR
 10
1.0
 20
0.0
 30
0.0
  9
$PUCSYDIR
 10
0.0
 20
1.0
 30
0.0
  9
$PUCSORTHOREF
  2

  9
$PUCSORTHOVIEW
 70
     0
  9
$PUCSORGTOP
 10
0.0
 20
0.0
 30
0.0
  9
$PUCSORGBOTTOM
 10
0.0
 20
0.0
 30
0.0
  9
$PUCSORGLEFT
 10
0.0
 20
0.0
 30
0.0
  9
$PUCSORGRIGHT
 10
0.0
 20
0.0
 30
0.0
  9
$PUCSORGFRONT
 10
0.0
 20
0.0
 30
0.0
  9
$PUCSORGBACK
 10
0.0
 20
0.0
 30
0.0
  9
$USERI1
 70
     0
  9
$USERI2
 70
     0
  9
$USERI3
 70
     0
  9
$USERI4
 70
     0
  9
$USERI5
 70
     0
  9
$USERR1
 40
0.0
  9
$USERR2
 40
0.0
  9
$USERR3
 40
0.0
  9
$USERR4
 40
0.0
  9
$USERR5
 40
0.0
  9
$WORLDVIEW
 70
     1
  9
$SHADEDGE
 70
     3
  9
$SHADEDIF
 70
    70
  9
$TILEMODE
 70
     1
  9
$MAXACTVP
 70
    64
  9
$PINSBASE
 10
0.0
 20
0.0
 30
0.0
  9
$PLIMCHECK
 70
     0
  9
$PEXTMIN
 10
1.0000000000E+20
 20
1.0000000000E+20
 30
1.0000000000E+20
  9
$PEXTMAX
 10
-1.0000000000E+20
 20
-1.0000000000E+20
 30
-1.0000000000E+20
  9
$PLIMMIN
 10
0.0
 20
0.0
  9
$PLIMMAX
 10
420.0
 20
297.0
  9
$UNITMODE
 70
     0
  9
$VISRETAIN
 70
     1
  9
$PLINEGEN
 70
     0
  9
$PSLTSCALE
 70
     1
  9
$TREEDEPTH
 70
  3020
  9
$CMLSTYLE
  2
Standard
  9
$CMLJUST
 70
     0
  9
$CMLSCALE
 40
20.0
  9
$PROXYGRAPHICS
 70
     1
  9
$MEASUREMENT
 70
     1
  9
$CELWEIGHT
370
    -1
  9
$ENDCAPS
280
     0
  9
$JOINSTYLE
280
     0
  9
$LWDISPLAY
290
     1
  9
$INSUNITS
 70
     4
  9
$HYPERLINKBASE
  1

  9
$STYLESHEET
  1

  9
$XEDIT
290
     1
  9
$CEPSNTYPE
380
     0
  9
$PSTYLEMODE
290
     1
  9
$FINGERPRINTGUID
  2
{48fdaa92-c0fd-4e81-8c4b-d781a5f73c9e}
  9
$VERSIONGUID
  2
{FAEB1C32-E019-11D5-929B-00C0DF256EC4}
  9
$EXTNAMES
290
     1
  9
$PSVPSCALE
 40
0.0
  9
$OLESTARTUP
290
     0
  0
ENDSEC
  0
SECTION
  2
CLASSES
  0
CLASS
  1
ACDBDICTIONARYWDFLT
  2
AcDbDictionaryWithDefault
  3
ObjectDBX Classes
 90
        0
280
     0
281
     0
  0
CLASS
  1
VISUALSTYLE
  2
AcDbVisualStyle
  3
ObjectDBX Classes
 90
     4095
280
     0
281
     0
  0
CLASS
  1
MATERIAL
  2
AcDbMaterial
  3
ObjectDBX Classes
 90
     1153
280
     0
281
     0
  0
CLASS
  1
SCALE
  2
AcDbScale
  3
ObjectDBX Classes
 90
     1153
280
     0
281
     0
  0
CLASS
  1
TABLESTYLE
  2
AcDbTableStyle
  3
ObjectDBX Classes
 90
     4095
280
     0
281
     0
  0
CLASS
  1
MLEADERSTYLE
  2
AcDbMLeaderStyle
  3
ACDB_MLEADERSTYLE_CLASS
 90
     4095
280
     0
281
     0
  0
CLASS
  1
SUN
  2
AcDbSun
  3
SCENEOE
 90
     1153
280
     0
281
     0
  0
CLASS
  1
ACDBPLACEHOLDER
  2
AcDbPlaceHolder
  3
ObjectDBX Classes
 90
        0
280
     0
281
     0
  0
CLASS
  1
LAYOUT
  2
AcDbLayout
  3
ObjectDBX Classes
 90
        0
280
     0
281
     0
  0
ENDSEC
  0
SECTION
  2
TABLES
  0
TABLE
  2
VPORT
  5
8
330
0
100
AcDbSymbolTable
 70
     1
  0
VPORT
  5
29
330
8
100
AcDbSymbolTableRecord
100
AcDbViewportTableRecord
  2
*Active
 70
     0
 10
0.0
 20
0.0
 11
1.0
 21
1.0
 12
139.7
 22
107.95
 13
0.0
 23
0.0
 14
10.0
 24
10.0
 15
10.0
 25
10.0
 16
0.0
 26
0.0
 36
1.0
 17
0.0
 27
0.0
 37
0.0
 40
215.9
 41
1.2941176471
 42
50.0
 43
0.0
 44
0.0
 50
0.0
 51
0.0
 71
     0
 72
  2000
 73
     1
 74
     3
 75
     0
 76
     0
 77
     0
 78
     0
281
     0
 65
     1
110
0.0
120
0.0
130
0.0
111
1.0
121
0.0
131
0.0
112
0.0
122
1.0
132
0.0
 79
     0
146
0.0
  0
ENDTAB
  0
TABLE
  2
LTYPE
  5
5
330
0
100
AcDbSymbolTable
 70
     6
  0
LTYPE
  5
14
330
5
100
AcDbSymbolTableRecord
100
AcDbLinetypeTableRecord
  2
ByBlock
 70
     0
  3

 72
    65
 73
     0
 40
0.0
  0
LTYPE
  5
15
330
5
100
AcDbSymbolTableRecord
100
AcDbLinetypeTableRecord
  2
ByLayer
 70
     0
  3

 72
    65
 73
     0
 40
0.0
  0
LTYPE
  5
16
330
5
100
AcDbSymbolTableRecord
100
AcDbLinetypeTableRecord
  2
Continuous
 70
     0
  3
Solid line
 72
    65
 73
     0
 40
0.0
  0
LTYPE
  5
6E
330
5
100
AcDbSymbolTableRecord
100
AcDbLinetypeTableRecord
  2
HIDDEN
 70
     0
  3
Hidden __ __ __ __ __ __ __ __ __ __ __ __ __ __
 72
    65
 73
     2
 40
1.905
 49
1.27
 74
     0
 49
-0.635
 74
     0
  0
LTYPE
  5
6F
330
5
100
AcDbSymbolTableRecord
100
AcDbLinetypeTableRecord
  2
PHANTOM
 70
     0
  3
Phantom ______  __  __  ______  __  __  ______
 72
    65
 73
     6
 40
12.7
 49
6.35
 74
     0
 49
-1.27
 74
     0
 49
1.27
 74
     0
 49
-1.27
 74
     0
 49
1.27
 74
     0
 49
-1.27
 74
     0
  0
LTYPE
  5
70
330
5
100
AcDbSymbolTableRecord
100
AcDbLinetypeTableRecord
  2
CENTER
 70
     0
  3
Center ____ _ ____ _ ____ _ ____ _ ____ _ ____
 72
    65
 73
     4
 40
10.16
 49
6.35
 74
     0
 49
-1.27
 74
     0
 49
1.27
 74
     0
 49
-1.27
 74
     0
  0
LTYPE
  5
71
330
5
100
AcDbSymbolTableRecord
100
AcDbLinetypeTableRecord
  2
CENTERX2
 70
     0
  3
Center (2x) ________  __  ________  __  _____
 72
    65
 73
     4
 40
20.32
 49
12.7
 74
     0
 49
-2.54
 74
     0
 49
2.54
 74
     0
 49
-2.54
 74
     0
  0
LTYPE
  5
72
330
5
100
AcDbSymbolTableRecord
100
AcDbLinetypeTableRecord
  2
DOT2
 70
     0
  3
Dot (.5x) ........................................
 72
    65
 73
     2
 40
0.635
 49
0.0
 74
     0
 49
-0.635
 74
     0
  0
ENDTAB
  0
TABLE
  2
LAYER
  5
2
330
0
100
AcDbSymbolTable
 70
    17
  0
LAYER
  5
10
330
2
100
AcDbSymbolTableRecord
100
AcDbLayerTableRecord
  2
0
 70
     0
 62
     7
  6
Continuous
370
    -3
390
F
  0
LAYER
  5
73
330
2
100
AcDbSymbolTableRecord
100
AcDbLayerTableRecord
  2
FORMAT
 70
     0
 62
     7
  6
Continuous
370
    -3
390
F
  0
LAYER
  5
74
330
2
100
AcDbSymbolTableRecord
100
AcDbLayerTableRecord
  2
YARDIMCI_GEOMETRI
 70
     0
 62
    -6
  6
Continuous
290
     0
370
    -3
390
F
  0
LAYER
  5
75
330
2
100
AcDbSymbolTableRecord
100
AcDbLayerTableRecord
  2
SAYFA_CERCEVESI
 70
     0
 62
     7
  6
Continuous
370
    25
390
F
  0
LAYER
  5
76
330
2
100
AcDbSymbolTableRecord
100
AcDbLayerTableRecord
  2
ANTET
 70
     0
 62
     7
  6
Continuous
370
    -3
390
F
  0
LAYER
  5
77
330
2
100
AcDbSymbolTableRecord
100
AcDbLayerTableRecord
  2
OLCU
 70
     0
 62
   150
  6
Continuous
370
    -3
390
F
  0
LAYER
  5
78
330
2
100
AcDbSymbolTableRecord
100
AcDbLayerTableRecord
  2
METIN
 70
     0
 62
    96
  6
Continuous
370
    -3
390
F
  0
LAYER
  5
79
330
2
100
AcDbSymbolTableRecord
100
AcDbLayerTableRecord
  2
BALON
 70
     0
 62
     5
  6
Continuous
370
    -3
390
F
  0
LAYER
  5
7A
330
2
100
AcDbSymbolTableRecord
100
AcDbLayerTableRecord
  2
VURGU
 70
     0
 62
     7
  6
Continuous
370
    -3
390
F
  0
LAYER
  5
7B
330
2
100
AcDbSymbolTableRecord
100
AcDbLayerTableRecord
  2
SILIK
 70
     0
 62
     7
  6
Continuous
370
    -3
390
F
  0
LAYER
  5
7C
330
2
100
AcDbSymbolTableRecord
100
AcDbLayerTableRecord
  2
MODEL
 70
     0
 62
     7
  6
Continuous
370
    -3
390
F
  0
LAYER
  5
7D
330
2
100
AcDbSymbolTableRecord
100
AcDbLayerTableRecord
  2
DETAYLANDıRMA
 70
     0
 62
   190
  6
Continuous
370
    -3
390
F
  0
LAYER
  5
7E
330
2
100
AcDbSymbolTableRecord
100
AcDbLayerTableRecord
  2
TOLERANS
 70
     0
 62
   230
  6
Continuous
370
    -3
390
F
  0
LAYER
  5
7F
330
2
100
AcDbSymbolTableRecord
100
AcDbLayerTableRecord
  2
MERKEZ_CIZGILERI
 70
     0
 62
    30
  6
Continuous
370
    -3
390
F
  0
LAYER
  5
80
330
2
100
AcDbSymbolTableRecord
100
AcDbLayerTableRecord
  2
KESIT-DETAY_CIZGILERI
 70
     0
 62
     7
  6
Continuous
370
    -3
390
F
  0
LAYER
  5
81
330
2
100
AcDbSymbolTableRecord
100
AcDbLayerTableRecord
  2
\U+041E\U+0421\U+0415\U+0412\U+042B\U+0415
 70
     0
 62
     7
  6
Continuous
370
    -3
390
F
  0
LAYER
  5
82
330
2
100
AcDbSymbolTableRecord
100
AcDbLayerTableRecord
  2
\U+0412\U+041E\U+0414\U+042F\U+041D\U+042B\U+0415_\U+0417\U+041D\U+0410\U+041A\U+0418
 70
     0
 62
    11
  6
Continuous
370
    -3
390
F
  0
ENDTAB
  0
TABLE
  2
STYLE
  5
3
330
0
100
AcDbSymbolTable
 70
     1
  0
STYLE
  5
11
330
3
100
AcDbSymbolTableRecord
100
AcDbTextStyleTableRecord
  2
Standard
 70
     0
 40
0.0
 41
1.0
 50
0.0
 71
     0
 42
3.5
  3
txt
  4

  0
ENDTAB
  0
TABLE
  2
VIEW
  5
6
330
0
100
AcDbSymbolTable
 70
     0
  0
ENDTAB
  0
TABLE
  2
UCS
  5
7
330
0
100
AcDbSymbolTable
 70
     0
  0
ENDTAB
  0
TABLE
  2
APPID
  5
9
330
0
100
AcDbSymbolTable
 70
     1
  0
APPID
  5
12
330
9
100
AcDbSymbolTableRecord
100
AcDbRegAppTableRecord
  2
ACAD
 70
     0
  0
ENDTAB
  0
TABLE
  2
DIMSTYLE
  5
A
330
0
100
AcDbSymbolTable
 70
     1
100
AcDbDimStyleTable
  0
DIMSTYLE
105
27
330
A
100
AcDbSymbolTableRecord
100
AcDbDimStyleTableRecord
  2
ISO-25
 70
     0
 41
2.5
 42
0.625
 43
3.75
 44
1.25
 73
     0
 74
     0
 77
     1
 78
     8
140
2.5
141
2.5
143
0.0393700787
147
0.625
171
     3
172
     1
178
     0
271
     2
272
     2
274
     3
278
    44
283
     0
284
     8
340
11
  0
ENDTAB
  0
TABLE
  2
BLOCK_RECORD
  5
1
330
0
100
AcDbSymbolTable
 70
     4
  0
BLOCK_RECORD
  5
1F
330
1
100
AcDbSymbolTableRecord
100
AcDbBlockTableRecord
  2
*Model_Space
340
22
  0
BLOCK_RECORD
  5
1B
330
1
100
AcDbSymbolTableRecord
100
AcDbBlockTableRecord
  2
*Paper_Space
340
1E
  0
BLOCK_RECORD
  5
23
330
1
100
AcDbSymbolTableRecord
100
AcDbBlockTableRecord
  2
*Paper_Space0
340
26
  0
BLOCK_RECORD
  5
93
330
1
100
AcDbSymbolTableRecord
100
AcDbBlockTableRecord
  2
SW_CENTERMARKSYMBOL_0
340
0
102
{BLKREFS
331
9E
102
}
  0
BLOCK_RECORD
  5
E9
330
1
100
AcDbSymbolTableRecord
100
AcDbBlockTableRecord
  2
SW_CENTERMARKSYMBOL_1
340
0
102
{BLKREFS
331
F4
102
}
  0
BLOCK_RECORD
  5
F5
330
1
100
AcDbSymbolTableRecord
100
AcDbBlockTableRecord
  2
SW_CENTERMARKSYMBOL_2
340
0
102
{BLKREFS
331
100
102
}
  0
ENDTAB
  0
ENDSEC
  0
SECTION
  2
BLOCKS
  0
BLOCK
  5
20
330
1F
100
AcDbEntity
  8
0
100
AcDbBlockBegin
  2
*Model_Space
 70
     0
 10
0.0
 20
0.0
 30
0.0
  3
*Model_Space
  1

  0
ENDBLK
  5
21
330
1F
100
AcDbEntity
  8
0
100
AcDbBlockEnd
  0
BLOCK
  5
1C
330
1B
100
AcDbEntity
 67
     1
  8
0
100
AcDbBlockBegin
  2
*Paper_Space
 70
     0
 10
0.0
 20
0.0
 30
0.0
  3
*Paper_Space
  1

  0
ENDBLK
  5
1D
330
1B
100
AcDbEntity
 67
     1
  8
0
100
AcDbBlockEnd
  0
BLOCK
  5
24
330
23
100
AcDbEntity
  8
0
100
AcDbBlockBegin
  2
*Paper_Space0
 70
     0
 10
0.0
 20
0.0
 30
0.0
  3
*Paper_Space0
  1

  0
ENDBLK
  5
25
330
23
100
AcDbEntity
  8
0
100
AcDbBlockEnd
  0
BLOCK
  5
94
330
93
100
AcDbEntity
  8
0
100
AcDbBlockBegin
  2
SW_CENTERMARKSYMBOL_0
 70
     0
 10
0.0
 20
0.0
 30
0.0
  3
SW_CENTERMARKSYMBOL_0
  1

  0
LINE
  5
96
330
93
100
AcDbEntity
  8
FORMAT
 62
     0
100
AcDbLine
 10
0.0
 20
0.0
 30
0.0
 11
0.0
 21
2.5
 31
0.0
  0
LINE
  5
97
330
93
100
AcDbEntity
  8
FORMAT
 62
     0
100
AcDbLine
 10
0.0
 20
0.0
 30
0.0
 11
-2.5
 21
0.0
 31
0.0
  0
LINE
  5
98
330
93
100
AcDbEntity
  8
FORMAT
 62
     0
100
AcDbLine
 10
0.0
 20
0.0
 30
0.0
 11
0.0
 21
-2.5
 31
0.0
  0
LINE
  5
99
330
93
100
AcDbEntity
  8
FORMAT
 62
     0
100
AcDbLine
 10
0.0
 20
0.0
 30
0.0
 11
2.5
 21
0.0
 31
0.0
  0
LINE
  5
9A
330
93
100
AcDbEntity
  8
FORMAT
 62
     0
100
AcDbLine
 10
0.0
 20
5.0
 30
0.0
 11
0.0
 21
317.5
 31
0.0
  0
LINE
  5
9B
330
93
100
AcDbEntity
  8
FORMAT
 62
     0
100
AcDbLine
 10
-5.0
 20
0.0
 30
0.0
 11
-317.5
 21
0.0
 31
0.0
  0
LINE
  5
9C
330
93
100
AcDbEntity
  8
FORMAT
 62
     0
100
AcDbLine
 10
0.0
 20
-5.0
 30
0.0
 11
0.0
 21
-317.5
 31
0.0
  0
LINE
  5
9D
330
93
100
AcDbEntity
  8
FORMAT
 62
     0
100
AcDbLine
 10
5.0
 20
0.0
 30
0.0
 11
317.5
 21
0.0
 31
0.0
  0
ENDBLK
  5
95
330
93
100
AcDbEntity
  8
0
100
AcDbBlockEnd
  0
BLOCK
  5
EA
330
E9
100
AcDbEntity
  8
0
100
AcDbBlockBegin
  2
SW_CENTERMARKSYMBOL_1
 70
     0
 10
0.0
 20
0.0
 30
0.0
  3
SW_CENTERMARKSYMBOL_1
  1

  0
LINE
  5
EC
330
E9
100
AcDbEntity
  8
FORMAT
 62
     0
100
AcDbLine
 10
0.0
 20
0.0
 30
0.0
 11
0.0
 21
2.5
 31
0.0
  0
LINE
  5
ED
330
E9
100
AcDbEntity
  8
FORMAT
 62
     0
100
AcDbLine
 10
0.0
 20
0.0
 30
0.0
 11
-2.5
 21
0.0
 31
0.0
  0
LINE
  5
EE
330
E9
100
AcDbEntity
  8
FORMAT
 62
     0
100
AcDbLine
 10
0.0
 20
0.0
 30
0.0
 11
0.0
 21
-2.5
 31
0.0
  0
LINE
  5
EF
330
E9
100
AcDbEntity
  8
FORMAT
 62
     0
100
AcDbLine
 10
0.0
 20
0.0
 30
0.0
 11
2.5
 21
0.0
 31
0.0
  0
LINE
  5
F0
330
E9
100
AcDbEntity
  8
FORMAT
 62
     0
100
AcDbLine
 10
0.0
 20
5.0
 30
0.0
 11
0.0
 21
9.5
 31
0.0
  0
LINE
  5
F1
330
E9
100
AcDbEntity
  8
FORMAT
 62
     0
100
AcDbLine
 10
-5.0
 20
0.0
 30
0.0
 11
-9.5
 21
0.0
 31
0.0
  0
LINE
  5
F2
330
E9
100
AcDbEntity
  8
FORMAT
 62
     0
100
AcDbLine
 10
0.0
 20
-5.0
 30
0.0
 11
0.0
 21
-9.5
 31
0.0
  0
LINE
  5
F3
330
E9
100
AcDbEntity
  8
FORMAT
 62
     0
100
AcDbLine
 10
5.0
 20
0.0
 30
0.0
 11
9.5
 21
0.0
 31
0.0
  0
ENDBLK
  5
EB
330
E9
100
AcDbEntity
  8
0
100
AcDbBlockEnd
  0
BLOCK
  5
F6
330
F5
100
AcDbEntity
  8
0
100
AcDbBlockBegin
  2
SW_CENTERMARKSYMBOL_2
 70
     0
 10
0.0
 20
0.0
 30
0.0
  3
SW_CENTERMARKSYMBOL_2
  1

  0
LINE
  5
F8
330
F5
100
AcDbEntity
  8
FORMAT
 62
     0
100
AcDbLine
 10
0.0
 20
0.0
 30
0.0
 11
0.0
 21
2.5
 31
0.0
  0
LINE
  5
F9
330
F5
100
AcDbEntity
  8
FORMAT
 62
     0
100
AcDbLine
 10
0.0
 20
0.0
 30
0.0
 11
-2.5
 21
0.0
 31
0.0
  0
LINE
  5
FA
330
F5
100
AcDbEntity
  8
FORMAT
 62
     0
100
AcDbLine
 10
0.0
 20
0.0
 30
0.0
 11
0.0
 21
-2.5
 31
0.0
  0
LINE
  5
FB
330
F5
100
AcDbEntity
  8
FORMAT
 62
     0
100
AcDbLine
 10
0.0
 20
0.0
 30
0.0
 11
2.5
 21
0.0
 31
0.0
  0
LINE
  5
FC
330
F5
100
AcDbEntity
  8
FORMAT
 62
     0
100
AcDbLine
 10
0.0
 20
5.0
 30
0.0
 11
0.0
 21
9.5
 31
0.0
  0
LINE
  5
FD
330
F5
100
AcDbEntity
  8
FORMAT
 62
     0
100
AcDbLine
 10
-5.0
 20
0.0
 30
0.0
 11
-9.5
 21
0.0
 31
0.0
  0
LINE
  5
FE
330
F5
100
AcDbEntity
  8
FORMAT
 62
     0
100
AcDbLine
 10
0.0
 20
-5.0
 30
0.0
 11
0.0
 21
-9.5
 31
0.0
  0
LINE
  5
FF
330
F5
100
AcDbEntity
  8
FORMAT
 62
     0
100
AcDbLine
 10
5.0
 20
0.0
 30
0.0
 11
9.5
 21
0.0
 31
0.0
  0
ENDBLK
  5
F7
330
F5
100
AcDbEntity
  8
0
100
AcDbBlockEnd
  0
ENDSEC
  0
SECTION
  2
ENTITIES
  0
LINE
  5
83
330
1F
100
AcDbEntity
  8
0
  6
Continuous
 62
     7
370
    25
100
AcDbLine
 10
107.1771772829
 20
473.3235456603
 30
0.0
 11
107.1771772829
 21
479.1752956702
 31
0.0
  0
LINE
  5
84
330
1F
100
AcDbEntity
  8
0
  6
Continuous
 62
     7
370
    25
100
AcDbLine
 10
93.1771772829
 20
479.1752956702
 30
0.0
 11
93.1771772829
 21
471.9714888472
 31
0.0
  0
LINE
  5
85
330
1F
100
AcDbEntity
  8
0
  6
Continuous
 62
     7
370
    25
100
AcDbLine
 10
177.1771772829
 20
471.9656258402
 30
0.0
 11
177.1771772829
 21
479.1752956702
 31
0.0
  0
LINE
  5
86
330
1F
100
AcDbEntity
  8
0
  6
Continuous
 62
     7
370
    25
100
AcDbLine
 10
163.1771772829
 20
479.1752956702
 30
0.0
 11
163.1771772829
 21
473.3193686554
 31
0.0
  0
CIRCLE
  5
87
330
1F
100
AcDbEntity
  8
0
  6
Continuous
 62
     7
370
    25
100
AcDbCircle
 10
135.1771772829
 20
114.1752956702
 30
0.0
 40
360.0
  0
ARC
  5
88
330
1F
100
AcDbEntity
  8
0
  6
Continuous
 62
     7
370
    25
100
AcDbCircle
 10
135.1771772829
 20
114.1752956702
 30
0.0
 40
362.0000000000002
100
AcDbArc
 50
96.6625816802
 51
180.0
  0
ARC
  5
89
330
1F
100
AcDbEntity
  8
0
  6
Continuous
 62
     7
370
    25
100
AcDbCircle
 10
135.1771772829
 20
114.1752956702
 30
0.0
 40
362.0000000000001
100
AcDbArc
 50
85.5638513514
 51
94.4361486486
  0
ARC
  5
8A
330
1F
100
AcDbEntity
  8
0
  6
Continuous
 62
     7
370
    25
100
AcDbCircle
 10
135.1771772829
 20
114.1752956702
 30
0.0
 40
362.0000000000002
100
AcDbArc
 50
180.0
 51
83.3374183198
  0
SPLINE
  5
8B
330
1F
100
AcDbEntity
  8
0
  6
Continuous
 62
     7
370
    25
100
AcDbSpline
210
0.0
220
0.0
230
1.0
 70
     8
 71
     3
 72
    15
 73
    11
 74
     0
 42
0.00000001
 43
0.00000001
 40
0.0
 40
0.0
 40
0.0
 40
0.0
 40
0.1323035756959465
 40
0.264593492530752
 40
0.3972115679451458
 40
0.5301315972392413
 40
0.6630079106513982
 40
0.7953963532127167
 40
0.9270124611913527
 40
1.0
 40
1.0
 40
1.0
 40
1.0
 10
106.0043150727067
 20
473.1570820737689
 30
0.0
 10
105.5024199189465
 20
473.103537473784
 30
0.0
 10
104.4986814264746
 20
472.9964538016936
 30
0.0
 10
102.3294671645495
 20
472.7832614409192
 30
0.0
 10
99.96189370247882
 20
472.5518208729191
 30
0.0
 10
97.60467487446739
 20
472.321809565334
 30
0.0
 10
95.53174282466095
 20
472.1224016334659
 30
0.0
 10
94.02554955837108
 20
471.9887062558348
 30
0.0
 10
93.22040692017372
 20
471.9326740620484
 30
0.0
 10
93.25997338141708
 20
471.9612832074473
 30
0.0
 10
93.27408778588087
 20
471.9714888471944
 30
0.0
  0
SPLINE
  5
8C
330
1F
100
AcDbEntity
  8
0
  6
Continuous
 62
     7
370
    25
100
AcDbSpline
210
0.0
220
0.0
230
1.0
 70
     8
 71
     3
 72
    10
 73
     6
 74
     0
 42
0.00000001
 43
0.00000001
 40
0.0
 40
0.0
 40
0.0
 40
0.0
 40
0.072358379586688
 40
0.6441355993582281
 40
1.0
 40
1.0
 40
1.0
 40
1.0
 10
107.133700082138
 20
473.3235456603198
 30
0.0
 10
107.1476979550881
 20
473.322737257013
 30
0.0
 10
107.2723072724046
 20
473.3155408362052
 30
0.0
 10
106.858897347767
 20
473.2561608987486
 30
0.0
 10
106.2412562355253
 20
473.1845526318258
 30
0.0
 10
106.0043150727067
 20
473.1570820737689
 30
0.0
  0
SPLINE
  5
8D
330
1F
100
AcDbEntity
  8
0
  6
Continuous
 62
     7
370
    25
100
AcDbSpline
210
0.0
220
0.0
230
1.0
 70
     8
 71
     3
 72
    14
 73
    10
 74
     0
 42
0.00000001
 43
0.00000001
 40
0.0
 40
0.0
 40
0.0
 40
0.0
 40
0.1527944389614734
 40
0.3055719561218148
 40
0.4586986686932353
 40
0.6118156455628964
 40
0.764549616805601
 40
0.9167556211500788
 40
1.0
 40
1.0
 40
1.0
 40
1.0
 10
174.3888724209609
 20
472.1651778148565
 30
0.0
 10
173.7110549492645
 20
472.2300530726825
 30
0.0
 10
172.3554950733449
 20
472.3597964034773
 30
0.0
 10
169.9482800309463
 20
472.5953458502826
 30
0.0
 10
167.6016565752531
 20
472.8245124439405
 30
0.0
 10
165.5264225964721
 20
473.0302576676704
 30
0.0
 10
164.0216838390928
 20
473.1906002515685
 30
0.0
 10
163.2177969118099
 20
473.2915962077807
 30
0.0
 10
163.2604223730031
 20
473.3121143782083
 30
0.0
 10
163.2754927669947
 20
473.319368655433
 30
0.0
  0
SPLINE
  5
8E
330
1F
100
AcDbEntity
  8
0
  6
Continuous
 62
     7
370
    25
100
AcDbSpline
210
0.0
220
0.0
230
1.0
 70
     8
 71
     3
 72
    11
 73
     7
 74
     0
 42
0.00000001
 43
0.00000001
 40
0.0
 40
0.0
 40
0.0
 40
0.0
 40
0.0513602181456186
 40
0.4137367166199175
 40
0.7755132531533967
 40
1.0
 40
1.0
 40
1.0
 40
1.0
 10
177.1292150395401
 20
471.9656258401671
 30
0.0
 10
177.1446203582915
 20
471.9616850554858
 30
0.0
 10
177.2687192470577
 20
471.9299397207917
 30
0.0
 10
176.7398759447443
 20
471.9588549200615
 30
0.0
 10
175.7225933087354
 20
472.0405783020539
 30
0.0
 10
174.7581633887505
 20
472.1306777368486
 30
0.0
 10
174.3888724209609
 20
472.1651778148565
 30
0.0
  0
CIRCLE
  5
8F
330
1F
100
AcDbEntity
  8
0
  6
Continuous
 62
     7
370
    25
100
AcDbCircle
 10
135.1771772829
 20
114.1752956702
 30
0.0
 40
315.0
  0
LINE
  5
90
330
1F
100
AcDbEntity
  8
0
  6
Continuous
 62
     7
370
    25
100
AcDbLine
 10
100.1771772829
 20
479.1752956702
 30
0.0
 11
93.1771772829
 21
479.1752956702
 31
0.0
  0
LINE
  5
91
330
1F
100
AcDbEntity
  8
0
  6
Continuous
 62
     7
370
    25
100
AcDbLine
 10
107.1771772829
 20
479.1752956702
 30
0.0
 11
100.1771772829
 21
479.1752956702
 31
0.0
  0
LINE
  5
92
330
1F
100
AcDbEntity
  8
0
  6
Continuous
 62
     7
370
    25
100
AcDbLine
 10
177.1771772829
 20
479.1752956702
 30
0.0
 11
163.1771772829
 21
479.1752956702
 31
0.0
  0
INSERT
  5
9E
330
1F
100
AcDbEntity
  8
FORMAT
 62
     7
100
AcDbBlockReference
  2
SW_CENTERMARKSYMBOL_0
 10
135.1771772829
 20
114.1752956702
 30
0.0
  0
ARC
  5
9F
330
1F
100
AcDbEntity
  8
0
  6
Continuous
 62
     7
370
    25
100
AcDbCircle
 10
1115.013211642
 20
-8788.8872043298
 30
0.0
 40
9265.062500000051
100
AcDbArc
 50
90.0
 51
91.0729985721
  0
LINE
  5
A0
330
1F
100
AcDbEntity
  8
0
  6
Continuous
 62
     7
370
    25
100
AcDbLine
 10
927.513211642
 20
474.2778529768
 30
0.0
 11
922.513211642
 21
474.1752956702
 31
0.0
  0
ARC
  5
A1
330
1F
100
AcDbEntity
  8
0
  6
Continuous
 62
     7
370
    25
100
AcDbCircle
 10
1115.013211642
 20
9017.2377956703
 30
0.0
 40
9265.06250000005
100
AcDbArc
 50
268.809481183
 51
270.0
  0
LINE
  5
A2
330
1F
100
AcDbEntity
  8
0
  6
Continuous
 62
     7
370
    25
100
AcDbLine
 10
1115.013211642
 20
-247.8247043298
 30
0.0
 11
1160.013211642
 21
-247.8247043298
 31
0.0
  0
LINE
  5
A3
330
1F
100
AcDbEntity
  8
0
  6
Continuous
 62
     7
370
    25
100
AcDbLine
 10
1160.013211642
 20
476.1752956702
 30
0.0
 11
1115.013211642
 21
476.1752956702
 31
0.0
  0
LINE
  5
A4
330
1F
100
AcDbEntity
  8
0
  6
Continuous
 62
     7
370
    25
100
AcDbLine
 10
1352.513211642
 20
474.1752956702
 30
0.0
 11
1347.513211642
 21
474.2778529768
 31
0.0
  0
ARC
  5
A5
330
1F
100
AcDbEntity
  8
0
  6
Continuous
 62
     7
370
    25
100
AcDbCircle
 10
1160.013211642
 20
-8788.8872043298
 30
0.0
 40
9265.062500000051
100
AcDbArc
 50
88.9270014279
 51
90.0
  0
ARC
  5
A6
330
1F
100
AcDbEntity
  8
0
  6
Continuous
 62
     7
370
    25
100
AcDbCircle
 10
1160.013211642
 20
9017.2377956703
 30
0.0
 40
9265.06250000005
100
AcDbArc
 50
270.0
 51
271.190518817
  0
LINE
  5
A7
330
1F
100
AcDbEntity
  8
0
  6
Continuous
 62
     7
370
    25
100
AcDbLine
 10
941.513211642
 20
472.8454878582
 30
0.0
 11
941.513211642
 21
479.1752956702
 31
0.0
  0
LINE
  5
A8
330
1F
100
AcDbEntity
  8
0
  6
Continuous
 62
     7
370
    25
100
AcDbLine
 10
927.513211642
 20
479.1752956702
 30
0.0
 11
927.513211642
 21
472.5723444091
 31
0.0
  0
LINE
  5
A9
330
1F
100
AcDbEntity
  8
0
  6
Continuous
 62
     7
370
    25
100
AcDbLine
 10
1347.513211642
 20
472.5725075197
 30
0.0
 11
1347.513211642
 21
479.1752956702
 31
0.0
  0
LINE
  5
AA
330
1F
100
AcDbEntity
  8
0
  6
Continuous
 62
     7
370
    25
100
AcDbLine
 10
1333.513211642
 20
479.1752956702
 30
0.0
 11
1333.513211642
 21
472.8437020269
 31
0.0
  0
LINE
  5
AB
330
1F
100
AcDbEntity
  8
0
  6
Continuous
 62
     7
370
    25
100
AcDbLine
 10
922.513211642
 20
114.1752956702
 30
0.0
 11
922.513211642
 21
474.1752956702
 31
0.0
  0
LINE
  5
AC
330
1F
100
AcDbEntity
  8
0
  6
Continuous
 62
     7
370
    25
100
AcDbLine
 10
922.513211642
 20
-245.8247043298
 30
0.0
 11
922.513211642
 21
114.1752956702
 31
0.0
  0
SPLINE
  5
AD
330
1F
100
AcDbEntity
  8
0
  6
Continuous
 62
     7
370
    25
100
AcDbSpline
210
0.0
220
0.0
230
1.0
 70
     8
 71
     3
 72
    18
 73
    14
 74
     0
 42
0.00000001
 43
0.00000001
 40
0.0
 40
0.0
 40
0.0
 40
0.0
 40
0.008666394961854
 40
0.1164960284010974
 40
0.2246967402996844
 40
0.3328757092963643
 40
0.4405651743127597
 40
0.5475382477636309
 40
0.653995707032488
 40
0.7604409794503209
 40
0.8673477560743131
 40
0.9748855404148172
 40
1.0
 40
1.0
 40
1.0
 40
1.0
 10
941.4839765692072
 20
472.8454878581515
 30
0.0
 10
941.4935617964288
 20
472.8397556421703
 30
0.0
 10
941.6224090169338
 20
472.7627016423599
 30
0.0
 10
941.1231831264193
 20
472.5824717994911
 30
0.0
 10
939.9653901565466
 20
472.338819654938
 30
0.0
 10
938.1013490783554
 20
472.127469988628
 30
0.0
 10
935.8552671780864
 20
471.9857045180665
 30
0.0
 10
933.4593882667543
 20
471.9330831546526
 30
0.0
 10
931.1972427563851
 20
471.975051384627
 30
0.0
 10
929.2906770652364
 20
472.101716711301
 30
0.0
 10
928.0278090368706
 20
472.2917083175986
 30
0.0
 10
927.4483049393082
 20
472.4604752685458
 30
0.0
 10
927.5628323712466
 20
472.5545362598062
 30
0.0
 10
927.5845153407591
 20
472.5723444090969
 30
0.0
  0
LINE
  5
AE
330
1F
100
AcDbEntity
  8
0
  6
Continuous
 62
     7
370
    25
100
AcDbLine
 10
1352.513211642
 20
114.1752956702
 30
0.0
 11
1352.513211642
 21
474.1752956702
 31
0.0
  0
LINE
  5
AF
330
1F
100
AcDbEntity
  8
0
  6
Continuous
 62
     7
370
    25
100
AcDbLine
 10
1352.513211642
 20
-245.8247043298
 30
0.0
 11
1352.513211642
 21
114.1752956702
 31
0.0
  0
SPLINE
  5
B0
330
1F
100
AcDbEntity
  8
0
  6
Continuous
 62
     7
370
    25
100
AcDbSpline
210
0.0
220
0.0
230
1.0
 70
     8
 71
     3
 72
    18
 73
    14
 74
     0
 42
0.00000001
 43
0.00000001
 40
0.0
 40
0.0
 40
0.0
 40
0.0
 40
0.0095545966137192
 40
0.1176361840369491
 40
0.2256822246585374
 40
0.3333315616659588
 40
0.4403528883715357
 40
0.546851564715079
 40
0.653268687378112
 40
0.7601239726838657
 40
0.8676838149103057
 40
0.9758005831805258
 40
0.9999999999999999
 40
0.9999999999999999
 40
0.9999999999999999
 40
0.9999999999999999
 10
1347.481131578877
 20
472.5725075196603
 30
0.0
 10
1347.491625924784
 20
472.5657714680282
 30
0.0
 10
1347.620832301192
 20
472.4828372070116
 30
0.0
 10
1347.11569508554
 20
472.321255015999
 30
0.0
 10
1345.948460860287
 20
472.1232337490262
 30
0.0
 10
1344.08287941836
 20
471.9859486909419
 30
0.0
 10
1341.843157497015
 20
471.9331504678892
 30
0.0
 10
1339.456279886854
 20
471.9746551091846
 30
0.0
 10
1337.198293597014
 20
472.1050734066035
 30
0.0
 10
1335.289161817701
 20
472.3065881589615
 30
0.0
 10
1334.024396635477
 20
472.5467077812674
 30
0.0
 10
1333.4449955452
 20
472.7381907833708
 30
0.0
 10
1333.561591837771
 20
472.8273885697836
 30
0.0
 10
1333.582916230411
 20
472.8437020269115
 30
0.0
  0
LINE
  5
B1
330
1F
100
AcDbEntity
  8
0
  6
Continuous
 62
     7
370
    25
100
AcDbLine
 10
941.513211642
 20
479.1752956702
 30
0.0
 11
927.513211642
 21
479.1752956702
 31
0.0
  0
LINE
  5
B2
330
1F
100
AcDbEntity
  8
0
  6
Continuous
 62
     7
370
    25
100
AcDbLine
 10
1347.513211642
 20
479.1752956702
 30
0.0
 11
1333.513211642
 21
479.1752956702
 31
0.0
  0
LINE
  5
B3
330
1F
100
AcDbEntity
  8
0
  6
Continuous
 62
     1
370
    25
100
AcDbLine
 10
1115.013211642
 20
114.1752956702
 30
0.0
 11
1115.013211642
 21
476.1752956702
 31
0.0
  0
LINE
  5
B4
330
1F
100
AcDbEntity
  8
0
  6
Continuous
 62
     1
370
    25
100
AcDbLine
 10
1115.013211642
 20
-247.8247043298
 30
0.0
 11
1115.013211642
 21
114.1752956702
 31
0.0
  0
LINE
  5
B5
330
1F
100
AcDbEntity
  8
0
  6
Continuous
 62
     1
370
    25
100
AcDbLine
 10
1160.013211642
 20
114.1752956702
 30
0.0
 11
1160.013211642
 21
476.1752956702
 31
0.0
  0
LINE
  5
B6
330
1F
100
AcDbEntity
  8
0
  6
Continuous
 62
     1
370
    25
100
AcDbLine
 10
1160.013211642
 20
-247.8247043298
 30
0.0
 11
1160.013211642
 21
114.1752956702
 31
0.0
  0
ARC
  5
B7
330
1F
100
AcDbEntity
  8
0
  6
Continuous
 62
     7
370
    25
100
AcDbCircle
 10
9038.239677283
 20
936.6188971861
 30
0.0
 40
9265.062500000047
100
AcDbArc
 50
180.0
 51
181.190518817
  0
ARC
  5
B8
330
1F
100
AcDbEntity
  8
0
  6
Continuous
 62
     7
370
    25
100
AcDbCircle
 10
-8767.8853227171
 20
936.6188971861
 30
0.0
 40
9265.06250000005
100
AcDbArc
 50
358.809481183
 51
0.0
  0
LINE
  5
B9
330
1F
100
AcDbEntity
  8
0
  6
Continuous
 62
     7
370
    25
100
AcDbLine
 10
497.1771772829
 20
936.6188971861
 30
0.0
 11
497.1771772829
 21
981.6188971861
 31
0.0
  0
LINE
  5
BA
330
1F
100
AcDbEntity
  8
0
  6
Continuous
 62
     7
370
    25
100
AcDbLine
 10
-226.8228227171
 20
981.6188971861
 30
0.0
 11
-226.8228227171
 21
936.6188971861
 31
0.0
  0
ARC
  5
BB
330
1F
100
AcDbEntity
  8
0
  6
Continuous
 62
     7
370
    25
100
AcDbCircle
 10
9038.239677283
 20
981.6188971861
 30
0.0
 40
9265.062500000047
100
AcDbArc
 50
178.809481183
 51
180.0
  0
ARC
  5
BC
330
1F
100
AcDbEntity
  8
0
  6
Continuous
 62
     7
370
    25
100
AcDbCircle
 10
-8767.8853227171
 20
981.6188971861
 30
0.0
 40
9265.06250000005
100
AcDbArc
 50
0.0
 51
1.190518817
  0
LINE
  5
BD
330
1F
100
AcDbEntity
  8
0
  6
Continuous
 62
     7
370
    25
100
AcDbLine
 10
495.1771772829
 20
744.1188971861
 30
0.0
 11
-224.8228227171
 21
744.1188971861
 31
0.0
  0
LINE
  5
BE
330
1F
100
AcDbEntity
  8
0
  6
Continuous
 62
     7
370
    25
100
AcDbLine
 10
495.1771772829
 20
1174.1188971861
 30
0.0
 11
-224.8228227171
 21
1174.1188971861
 31
0.0
  0
LINE
  5
BF
330
1F
100
AcDbEntity
  8
0
  6
Continuous
 62
     1
370
    25
100
AcDbLine
 10
497.1771772829
 20
936.6188971861
 30
0.0
 11
-226.8228227171
 21
936.6188971861
 31
0.0
  0
LINE
  5
C0
330
1F
100
AcDbEntity
  8
0
  6
Continuous
 62
     1
370
    25
100
AcDbLine
 10
497.1771772829
 20
981.6188971861
 30
0.0
 11
-226.8228227171
 21
981.6188971861
 31
0.0
  0
ARC
  5
C1
330
1F
100
AcDbEntity
  8
0
  6
Continuous
 62
     7
370
    25
100
AcDbCircle
 10
-725.1177159165
 20
9017.2377956703
 30
0.0
 40
9265.06250000005
100
AcDbArc
 50
270.0
 51
271.190518817
  0
LINE
  5
C2
330
1F
100
AcDbEntity
  8
0
  6
Continuous
 62
     7
370
    25
100
AcDbLine
 10
-532.6177159165
 20
474.1752956702
 30
0.0
 11
-537.6177159165
 21
474.2778529768
 31
0.0
  0
ARC
  5
C3
330
1F
100
AcDbEntity
  8
0
  6
Continuous
 62
     7
370
    25
100
AcDbCircle
 10
-725.1177159165
 20
-8788.8872043298
 30
0.0
 40
9265.062500000051
100
AcDbArc
 50
88.9270014279
 51
90.0
  0
LINE
  5
C4
330
1F
100
AcDbEntity
  8
0
  6
Continuous
 62
     7
370
    25
100
AcDbLine
 10
-725.1177159165
 20
476.1752956702
 30
0.0
 11
-770.1177159165
 21
476.1752956702
 31
0.0
  0
LINE
  5
C5
330
1F
100
AcDbEntity
  8
0
  6
Continuous
 62
     7
370
    25
100
AcDbLine
 10
-770.1177159165
 20
-247.8247043298
 30
0.0
 11
-725.1177159165
 21
-247.8247043298
 31
0.0
  0
ARC
  5
C6
330
1F
100
AcDbEntity
  8
0
  6
Continuous
 62
     7
370
    25
100
AcDbCircle
 10
-770.1177159165
 20
9017.2377956703
 30
0.0
 40
9265.06250000005
100
AcDbArc
 50
268.809481183
 51
270.0
  0
ARC
  5
C7
330
1F
100
AcDbEntity
  8
0
  6
Continuous
 62
     7
370
    25
100
AcDbCircle
 10
-770.1177159165
 20
-8788.8872043298
 30
0.0
 40
9265.062500000051
100
AcDbArc
 50
90.0
 51
91.0729985721
  0
LINE
  5
C8
330
1F
100
AcDbEntity
  8
0
  6
Continuous
 62
     7
370
    25
100
AcDbLine
 10
-957.6177159165
 20
474.2778529768
 30
0.0
 11
-962.6177159165
 21
474.1752956702
 31
0.0
  0
LINE
  5
C9
330
1F
100
AcDbEntity
  8
0
  6
Continuous
 62
     7
370
    25
100
AcDbLine
 10
-537.6177159165
 20
472.5729914776
 30
0.0
 11
-537.6177159165
 21
479.1752956702
 31
0.0
  0
LINE
  5
CA
330
1F
100
AcDbEntity
  8
0
  6
Continuous
 62
     7
370
    25
100
AcDbLine
 10
-551.6177159165
 20
479.1752956702
 30
0.0
 11
-551.6177159165
 21
472.8443378323
 31
0.0
  0
LINE
  5
CB
330
1F
100
AcDbEntity
  8
0
  6
Continuous
 62
     7
370
    25
100
AcDbLine
 10
-943.6177159165
 20
472.8450501317
 30
0.0
 11
-943.6177159165
 21
479.1752956702
 31
0.0
  0
LINE
  5
CC
330
1F
100
AcDbEntity
  8
0
  6
Continuous
 62
     7
370
    25
100
AcDbLine
 10
-957.6177159165
 20
479.1752956702
 30
0.0
 11
-957.6177159165
 21
472.5733917665
 31
0.0
  0
LINE
  5
CD
330
1F
100
AcDbEntity
  8
0
  6
Continuous
 62
     7
370
    25
100
AcDbLine
 10
-532.6177159165
 20
474.1752956702
 30
0.0
 11
-532.6177159165
 21
-245.8247043298
 31
0.0
  0
SPLINE
  5
CE
330
1F
100
AcDbEntity
  8
0
  6
Continuous
 62
     7
370
    25
100
AcDbSpline
210
0.0
220
0.0
230
1.0
 70
     8
 71
     3
 72
     9
 73
     5
 74
     0
 42
0.00000001
 43
0.00000001
 40
0.0
 40
0.0
 40
0.0
 40
0.0
 40
0.5879804106053259
 40
1.0
 40
1.0
 40
1.0
 40
1.0
 10
-550.4862662201228
 20
472.4327569592457
 30
0.0
 10
-550.8738908009516
 20
472.5157451661376
 30
0.0
 10
-551.5331382415758
 20
472.6568862745743
 30
0.0
 10
-551.5334276180874
 20
472.7896404935086
 30
0.0
 10
-551.533546846879
 20
472.8443378322843
 30
0.0
  0
SPLINE
  5
CF
330
1F
100
AcDbEntity
  8
0
  6
Continuous
 62
     7
370
    25
100
AcDbSpline
210
0.0
220
0.0
230
1.0
 70
     8
 71
     3
 72
    15
 73
    11
 74
     0
 42
0.00000001
 43
0.00000001
 40
0.0
 40
0.0
 40
0.0
 40
0.0
 40
0.1308485866664533
 40
0.2632166036918723
 40
0.3951411708669793
 40
0.5263092838018075
 40
0.6568027688753052
 40
0.7871305464730177
 40
0.9179389673304882
 40
1.0
 40
1.0
 40
1.0
 40
1.0
 10
-537.6222385398422
 20
472.5729914776038
 30
0.0
 10
-537.6965916246163
 20
472.4966636303756
 30
0.0
 10
-537.8461611916007
 20
472.3431216072911
 30
0.0
 10
-539.0512576010963
 20
472.1408193464515
 30
0.0
 10
-540.8335728658359
 20
471.9962614494151
 30
0.0
 10
-543.0523256167268
 20
471.9342593328756
 30
0.0
 10
-545.4361794690685
 20
471.9661665362204
 30
0.0
 10
-547.7141602303013
 20
472.0886030839958
 30
0.0
 10
-549.4378436221866
 20
472.2583611717965
 30
0.0
 10
-550.1945546301471
 20
472.3842333271321
 30
0.0
 10
-550.4862662201228
 20
472.4327569592457
 30
0.0
  0
LINE
  5
D0
330
1F
100
AcDbEntity
  8
0
  6
Continuous
 62
     7
370
    25
100
AcDbLine
 10
-962.6177159165
 20
474.1752956702
 30
0.0
 11
-962.6177159165
 21
-245.8247043298
 31
0.0
  0
SPLINE
  5
D1
330
1F
100
AcDbEntity
  8
0
  6
Continuous
 62
     7
370
    25
100
AcDbSpline
210
0.0
220
0.0
230
1.0
 70
     8
 71
     3
 72
     9
 73
     5
 74
     0
 42
0.00000001
 43
0.00000001
 40
0.0
 40
0.0
 40
0.0
 40
0.0
 40
0.5238446234674857
 40
1.0
 40
1.0
 40
1.0
 40
1.0
 10
-956.2089254514998
 20
472.1651778148563
 30
0.0
 10
-956.6354322299889
 20
472.2300402513245
 30
0.0
 10
-957.4496178861588
 20
472.3538602421431
 30
0.0
 10
-957.5412489724272
 20
472.5025786818335
 30
0.0
 10
-957.5848796068113
 20
472.5733917664815
 30
0.0
  0
SPLINE
  5
D2
330
1F
100
AcDbEntity
  8
0
  6
Continuous
 62
     7
370
    25
100
AcDbSpline
210
0.0
220
0.0
230
1.0
 70
     8
 71
     3
 72
    15
 73
    11
 74
     0
 42
0.00000001
 43
0.00000001
 40
0.0
 40
0.0
 40
0.0
 40
0.0
 40
0.1060413876598009
 40
0.2420994717843915
 40
0.3783042103153724
 40
0.514055946367569
 40
0.6489391666003484
 40
0.7830429623637469
 40
0.9169247316604288
 40
1.0
 40
1.0
 40
1.0
 40
1.0
 10
-943.6852373305504
 20
472.8450501317466
 30
0.0
 10
-943.7053065864695
 20
472.7839393103102
 30
0.0
 10
-943.7511260194698
 20
472.6444192802866
 30
0.0
 10
-944.7548445357702
 20
472.4094361993213
 30
0.0
 10
-946.4145136325697
 20
472.1850327916747
 30
0.0
 10
-948.5750446362291
 20
472.0195082334266
 30
0.0
 10
-950.9554112022682
 20
471.9387379113139
 30
0.0
 10
-953.2796532270411
 20
471.9533326096219
 30
0.0
 10
-955.0750890701576
 20
472.0413675257552
 30
0.0
 10
-955.8949800537639
 20
472.1308962632187
 30
0.0
 10
-956.2089254514998
 20
472.1651778148563
 30
0.0
  0
LINE
  5
D3
330
1F
100
AcDbEntity
  8
0
  6
Continuous
 62
     7
370
    25
100
AcDbLine
 10
-537.6177159165
 20
479.1752956702
 30
0.0
 11
-551.6177159165
 21
479.1752956702
 31
0.0
  0
LINE
  5
D4
330
1F
100
AcDbEntity
  8
0
  6
Continuous
 62
     7
370
    25
100
AcDbLine
 10
-943.6177159165
 20
479.1752956702
 30
0.0
 11
-957.6177159165
 21
479.1752956702
 31
0.0
  0
LINE
  5
D5
330
1F
100
AcDbEntity
  8
0
  6
Continuous
 62
     1
370
    25
100
AcDbLine
 10
-725.1177159165
 20
476.1752956702
 30
0.0
 11
-725.1177159165
 21
-247.8247043298
 31
0.0
  0
LINE
  5
D6
330
1F
100
AcDbEntity
  8
0
  6
Continuous
 62
     1
370
    25
100
AcDbLine
 10
-770.1177159165
 20
476.1752956702
 30
0.0
 11
-770.1177159165
 21
-247.8247043298
 31
0.0
  0
ARC
  5
D7
330
1F
100
AcDbEntity
  8
0
  6
Continuous
 62
     7
370
    25
100
AcDbCircle
 10
-8767.8853227171
 20
-872.7914218852
 30
0.0
 40
9265.06250000005
100
AcDbArc
 50
0.0
 51
1.190518817
  0
ARC
  5
D8
330
1F
100
AcDbEntity
  8
0
  6
Continuous
 62
     7
370
    25
100
AcDbCircle
 10
9038.239677283
 20
-872.7914218852
 30
0.0
 40
9265.062500000047
100
AcDbArc
 50
178.809481183
 51
180.0
  0
LINE
  5
D9
330
1F
100
AcDbEntity
  8
0
  6
Continuous
 62
     7
370
    25
100
AcDbLine
 10
-226.8228227171
 20
-872.7914218852
 30
0.0
 11
-226.8228227171
 21
-917.7914218852
 31
0.0
  0
LINE
  5
DA
330
1F
100
AcDbEntity
  8
0
  6
Continuous
 62
     7
370
    25
100
AcDbLine
 10
497.1771772829
 20
-917.7914218852
 30
0.0
 11
497.1771772829
 21
-872.7914218852
 31
0.0
  0
ARC
  5
DB
330
1F
100
AcDbEntity
  8
0
  6
Continuous
 62
     7
370
    25
100
AcDbCircle
 10
-8767.8853227171
 20
-917.7914218852
 30
0.0
 40
9265.06250000005
100
AcDbArc
 50
358.809481183
 51
0.0
  0
ARC
  5
DC
330
1F
100
AcDbEntity
  8
0
  6
Continuous
 62
     7
370
    25
100
AcDbCircle
 10
9038.239677283
 20
-917.7914218852
 30
0.0
 40
9265.062500000047
100
AcDbArc
 50
180.0
 51
181.190518817
  0
CIRCLE
  5
DD
330
1F
100
AcDbEntity
  8
0
  6
Continuous
 62
     7
370
    25
100
AcDbCircle
 10
170.1771772829
 20
-692.2914218852
 30
0.0
 40
7.0
  0
CIRCLE
  5
DE
330
1F
100
AcDbEntity
  8
0
  6
Continuous
 62
     7
370
    25
100
AcDbCircle
 10
170.1771772829
 20
-692.2914218852
 30
0.0
 40
5.0
  0
CIRCLE
  5
DF
330
1F
100
AcDbEntity
  8
0
  6
Continuous
 62
     7
370
    25
100
AcDbCircle
 10
100.1771772829
 20
-692.2914218852
 30
0.0
 40
5.0
  0
CIRCLE
  5
E0
330
1F
100
AcDbEntity
  8
0
  6
Continuous
 62
     7
370
    25
100
AcDbCircle
 10
100.1771772829
 20
-692.2914218852
 30
0.0
 40
7.000000000000114
  0
CIRCLE
  5
E1
330
1F
100
AcDbEntity
  8
0
  6
Continuous
 62
     7
370
    25
100
AcDbCircle
 10
170.1771772829
 20
-1098.2914218852
 30
0.0
 40
7.0
  0
CIRCLE
  5
E2
330
1F
100
AcDbEntity
  8
0
  6
Continuous
 62
     7
370
    25
100
AcDbCircle
 10
170.1771772829
 20
-1098.2914218852
 30
0.0
 40
5.0
  0
CIRCLE
  5
E3
330
1F
100
AcDbEntity
  8
0
  6
Continuous
 62
     7
370
    25
100
AcDbCircle
 10
100.1771772829
 20
-1098.2914218852
 30
0.0
 40
5.0
  0
CIRCLE
  5
E4
330
1F
100
AcDbEntity
  8
0
  6
Continuous
 62
     7
370
    25
100
AcDbCircle
 10
100.1771772829
 20
-1098.2914218852
 30
0.0
 40
7.0
  0
LINE
  5
E5
330
1F
100
AcDbEntity
  8
0
  6
Continuous
 62
     7
370
    25
100
AcDbLine
 10
-224.8228227171
 20
-680.2914218852
 30
0.0
 11
495.1771772829
 21
-680.2914218852
 31
0.0
  0
LINE
  5
E6
330
1F
100
AcDbEntity
  8
0
  6
Continuous
 62
     7
370
    25
100
AcDbLine
 10
-224.8228227171
 20
-1110.2914218852
 30
0.0
 11
495.1771772829
 21
-1110.2914218852
 31
0.0
  0
LINE
  5
E7
330
1F
100
AcDbEntity
  8
0
  6
Continuous
 62
     1
370
    25
100
AcDbLine
 10
-226.8228227171
 20
-872.7914218852
 30
0.0
 11
497.1771772829
 21
-872.7914218852
 31
0.0
  0
LINE
  5
E8
330
1F
100
AcDbEntity
  8
0
  6
Continuous
 62
     1
370
    25
100
AcDbLine
 10
-226.8228227171
 20
-917.7914218852
 30
0.0
 11
497.1771772829
 21
-917.7914218852
 31
0.0
  0
INSERT
  5
F4
330
1F
100
AcDbEntity
  8
FORMAT
 62
     7
100
AcDbBlockReference
  2
SW_CENTERMARKSYMBOL_1
 10
135.1771772829
 20
-757.2914218852
 30
0.0
  0
INSERT
  5
100
330
1F
100
AcDbEntity
  8
FORMAT
 62
     7
100
AcDbBlockReference
  2
SW_CENTERMARKSYMBOL_2
 10
135.1771772829
 20
-1033.2914218852
 30
0.0
  0
SPLINE
  5
101
330
1F
100
AcDbEntity
  8
0
  6
Continuous
 62
     7
370
    25
100
AcDbSpline
210
0.0
220
0.0
230
1.0
 70
     8
 71
     3
 72
    11
 73
     7
 74
     0
 42
0.00000001
 43
0.00000001
 40
0.0
 40
0.0
 40
0.0
 40
0.0
 40
0.2182315122488533
 40
0.4965124727047732
 40
0.7747639806686134
 40
1.0
 40
1.0
 40
1.0
 40
1.0
 10
946.0472498772464
 20
-567.9979678052805
 30
0.0
 10
935.9549617716583
 20
-573.8329598906424
 30
0.0
 10
912.9933515490226
 20
-587.1085236195516
 30
0.0
 10
877.3576699540644
 20
-608.1542280558614
 30
0.0
 10
841.5180590987435
 20
-629.5857620118488
 30
0.0
 10
818.5675458088904
 20
-643.5997511694427
 30
0.0
 10
808.3005938492491
 20
-649.8689335457497
 30
0.0
  0
SPLINE
  5
102
330
1F
100
AcDbEntity
  8
0
  6
Continuous
 62
     7
370
    25
100
AcDbSpline
210
0.0
220
0.0
230
1.0
 70
     8
 71
     3
 72
    12
 73
     8
 74
     0
 42
0.00000001
 43
0.00000001
 40
0.0
 40
0.0
 40
0.0
 40
0.0
 40
0.1049575634654732
 40
0.3832855002244017
 40
0.6616114901062243
 40
0.9399291647322424
 40
1.0
 40
1.0
 40
1.0
 40
1.0
 10
1168.202745281458
 20
-1273.302912412815
 30
0.0
 10
1173.13163493198
 20
-1270.633257115229
 30
0.0
 10
1191.131023188286
 20
-1260.884172510207
 30
0.0
 10
1222.050665433437
 20
-1243.770129633948
 30
0.0
 10
1260.942721948601
 20
-1221.938268542553
 30
0.0
 10
1289.584716664463
 20
-1205.659805695613
 30
0.0
 10
1305.216351358209
 20
-1196.582364984979
 30
0.0
 10
1307.991284091441
 20
-1194.970934839929
 30
0.0
  0
LINE
  5
103
330
1F
100
AcDbEntity
  8
0
  6
Continuous
 62
     7
370
    25
100
AcDbLine
 10
977.8538032861
 20
-549.6055680072
 30
0.0
 11
946.0339981327
 21
-567.9747505232
 31
0.0
  0
LINE
  5
104
330
1F
100
AcDbEntity
  8
0
  6
Continuous
 62
     7
370
    25
100
AcDbLine
 10
1308.004579347
 20
-1194.9941268868
 30
0.0
 11
1339.8243845004
 21
-1176.6249443708
 31
0.0
  0
SPLINE
  5
105
330
1F
100
AcDbEntity
  8
0
  6
Continuous
 62
     7
370
    25
100
AcDbSpline
210
0.0
220
0.0
230
1.0
 70
     8
 71
     3
 72
    12
 73
     8
 74
     0
 42
0.00000001
 43
0.00000001
 40
0.0
 40
0.0
 40
0.0
 40
0.0
 40
0.1049562517257334
 40
0.3832844987875786
 40
0.6616107989674996
 40
0.9399287838885362
 40
1.0
 40
1.0
 40
1.0
 40
1.0
 10
1117.655436154683
 20
-471.2968916732478
 30
0.0
 10
1112.726613620081
 20
-473.9665106687597
 30
0.0
 10
1094.727292534148
 20
-483.7155590753507
 30
0.0
 10
1063.807717255413
 20
-500.8295653641501
 30
0.0
 10
1024.91566065474
 20
-522.6614262966378
 30
0.0
 10
996.2736514320717
 20
-538.9398975526973
 30
0.0
 10
980.6420022593578
 20
-548.017346718239
 30
0.0
 10
977.8670550306415
 20
-549.6287852892698
 30
0.0
  0
SPLINE
  5
106
330
1F
100
AcDbEntity
  8
0
  6
Continuous
 62
     7
370
    25
100
AcDbSpline
210
0.0
220
0.0
230
1.0
 70
     8
 71
     3
 72
    11
 73
     7
 74
     0
 42
0.00000001
 43
0.00000001
 40
0.0
 40
0.0
 40
0.0
 40
0.0
 40
0.2182323807157757
 40
0.4965140483675354
 40
0.7747662634564788
 40
0.9999999999999999
 40
0.9999999999999999
 40
0.9999999999999999
 40
0.9999999999999999
 10
1339.811089244835
 20
-1176.601752323919
 30
0.0
 10
1349.903391875543
 20
-1170.766751862747
 30
0.0
 10
1372.865016635755
 20
-1157.491179778985
 30
0.0
 10
1408.500712620263
 20
-1136.445466743858
 30
0.0
 10
1444.340192865978
 20
-1115.014011515283
 30
0.0
 10
1467.290576137682
 20
-1101.000102036135
 30
0.0
 10
1477.557398007551
 20
-1094.730999223361
 30
0.0
  0
LINE
  5
107
330
1F
100
AcDbEntity
  8
0
  6
Continuous
 62
     7
370
    25
100
AcDbLine
 10
1031.1352520772
 20
-677.0322675457
 30
0.0
 11
1031.1352520772
 21
-671.4150164156
 31
0.0
  0
LINE
  5
108
330
1F
100
AcDbEntity
  8
0
  6
Continuous
 62
     7
370
    25
100
AcDbLine
 10
1017.1352520772
 20
-671.4150164156
 30
0.0
 11
1017.1352520772
 21
-676.4091850672
 31
0.0
  0
LINE
  5
109
330
1F
100
AcDbEntity
  8
0
  6
Continuous
 62
     7
370
    25
100
AcDbLine
 10
981.6377773941
 20
-647.6800757256
 30
0.0
 11
981.6377773941
 21
-642.8407325018
 31
0.0
  0
LINE
  5
10A
330
1F
100
AcDbEntity
  8
0
  6
Continuous
 62
     7
370
    25
100
AcDbLine
 10
967.6377773941
 20
-642.8407325018
 30
0.0
 11
967.6377773941
 21
-648.6156676618
 31
0.0
  0
LINE
  5
10B
330
1F
100
AcDbEntity
  8
0
  6
Continuous
 62
     7
370
    25
100
AcDbLine
 10
1318.2206052389
 20
-511.4579672578
 30
0.0
 11
1318.2206052389
 21
-505.6841697156
 31
0.0
  0
LINE
  5
10C
330
1F
100
AcDbEntity
  8
0
  6
Continuous
 62
     7
370
    25
100
AcDbLine
 10
1304.2206052389
 20
-505.6841697156
 30
0.0
 11
1304.2206052389
 21
-510.5173079526
 31
0.0
  0
LINE
  5
10D
330
1F
100
AcDbEntity
  8
0
  6
Continuous
 62
     7
370
    25
100
AcDbLine
 10
1268.7231305559
 20
-482.1050237146
 30
0.0
 11
1268.7231305559
 21
-477.1098858018
 31
0.0
  0
LINE
  5
10E
330
1F
100
AcDbEntity
  8
0
  6
Continuous
 62
     7
370
    25
100
AcDbLine
 10
1254.7231305559
 20
-477.1098858018
 30
0.0
 11
1254.7231305559
 21
-482.727655974
 31
0.0
  0
LWPOLYLINE
  5
10F
330
1F
100
AcDbEntity
  8
0
  6
Continuous
 62
     7
370
    25
100
AcDbPolyline
 90
      202
 70
   128
 43
0.0
 10
736.3427921343
 20
-813.1102593398
 10
736.467154726
 20
-803.9946343308
 10
736.8401209883
 20
-795.0315020524
 10
737.4613265015
 20
-786.229620245
 10
738.3301642952
 20
-777.5975890935
 10
739.4457854412
 20
-769.1438428243
 10
740.8070998829
 20
-760.8766414645
 10
742.4127775009
 20
-752.8040627707
 10
744.2612494118
 20
-744.933994337
 10
746.3507095018
 20
-737.2741258875
 10
748.6791161914
 20
-729.8319417633
 10
751.2441944296
 20
-722.6147136094
 10
754.0434379175
 20
-715.6294932696
 10
757.0741115569
 20
-708.8831058966
 10
760.3332541227
 20
-702.382143283
 10
763.8176811561
 20
-696.1329574205
 10
767.5239880765
 20
-690.1416542935
 10
771.4485535077
 20
-684.4140879134
 10
775.5875428165
 20
-678.9558545981
 10
779.9369118593
 20
-673.7722875045
 10
784.4924109339
 20
-668.8684514172
 10
789.2495889312
 20
-664.2491377998
 10
794.2037976851
 20
-659.9188601136
 10
799.3501965133
 20
-655.8818494069
 10
804.6837569479
 20
-652.1420501816
 10
810.199267648
 20
-648.7031165387
 10
815.891339492
 20
-645.5684086079
 10
821.7544108429
 20
-642.7409892648
 10
827.782752983
 20
-640.2236211377
 10
833.9704757107
 20
-638.0187639089
 10
840.3115330961
 20
-636.1285719107
 10
846.7997293886
 20
-634.5548920211
 10
853.4287250702
 20
-633.2992618587
 10
860.1920430499
 20
-632.3629082808
 10
867.0830749926
 20
-631.7467461841
 10
874.0950877756
 20
-631.4513776113
 10
881.221230068
 20
-631.4770911625
 10
888.4545390243
 20
-631.8238617134
 10
895.7879470883
 20
-632.4913504398
 10
903.2142888986
 20
-633.4789051485
 10
910.7263082894
 20
-634.7855609149
 10
918.3166653807
 20
-636.4100410255
 10
925.9779437501
 20
-638.3507582255
 10
933.7026576788
 20
-640.6058162695
 10
941.4832594664
 20
-643.1730117748
 10
949.3121468051
 20
-646.0498363734
 10
957.181670208
 20
-649.233479164
 10
965.0841404836
 20
-652.7208294574
 10
973.0118362481
 20
-656.5084798168
 10
980.9570114707
 20
-660.5927293865
 10
988.9119030412
 20
-664.9695875083
 10
996.8687383562
 20
-669.6347776208
 10
1004.8197429128
 20
-674.5837414376
 10
1012.7571479053
 20
-679.8116434014
 10
1020.6731978159
 20
-685.3133754086
 10
1028.5601579925
 20
-691.0835618005
 10
1036.4103222064
 20
-697.1165646157
 10
1044.2160201814
 20
-703.4064890989
 10
1051.9696250886
 20
-709.9471894605
 10
1059.6635609985
 20
-716.7322748815
 10
1067.2903102833
 20
-723.7551157581
 10
1074.8424209623
 20
-731.0088501794
 10
1082.3125139828
 20
-738.4863906315
 10
1089.6932904306
 20
-746.1804309235
 10
1096.9775386612
 20
-754.0834533255
 10
1104.1581413463
 20
-762.1877359145
 10
1111.2280824282
 20
-770.4853601191
 10
1118.180453975
 20
-778.9682184568
 10
1125.0084629301
 20
-787.6280224558
 10
1131.7054377497
 20
-796.4563107531
 10
1138.2648349216
 20
-805.4444573625
 10
1144.6802453584
 20
-814.5836801026
 10
1150.9454006603
 20
-823.8650491776
 10
1157.054179239
 20
-833.2794959031
 10
1163.0006123001
 20
-842.8178215662
 10
1168.778889674
 20
-852.4707064138
 10
1174.3833654939
 20
-862.228718759
 10
1179.8085637115
 20
-872.0823241963
 10
1185.0491834483
 20
-882.0218949174
 10
1190.1001041742
 20
-892.037719119
 10
1194.9563907115
 20
-902.1200104915
 10
1199.6132980563
 20
-912.2589177812
 10
1204.0662760154
 20
-922.444534416
 10
1208.3109736516
 20
-932.6669081846
 10
1212.3432435354
 20
-942.9160509611
 10
1216.1591457971
 20
-953.1819484638
 10
1219.7549519768
 20
-963.4545700404
 10
1223.1271486668
 20
-973.7238784684
 10
1226.272440945
 20
-983.9798397627
 10
1229.1877555941
 20
-994.2124329794
 10
1231.8702441045
 20
-1004.4116600073
 10
1234.3172854575
 20
-1014.5675553365
 10
1236.5264886862
 20
-1024.6701957963
 10
1238.4956952116
 20
-1034.7097102501
 10
1240.2229809519
 20
-1044.676289241
 10
1241.7066582027
 20
-1054.5601945761
 10
1242.9452772853
 20
-1064.3517688419
 10
1243.9376279639
 20
-1074.0414448399
 10
1244.6827406277
 20
-1083.619754935
 10
1245.1798872384
 20
-1093.077340306
 10
1245.4285820418
 20
-1102.40496009
 10
1245.4285820418
 20
-1111.5935004116
 10
1245.1798872384
 20
-1120.6339832875
 10
1244.6827406277
 20
-1129.5175753996
 10
1243.9376279639
 20
-1138.2355967248
 10
1242.9452772853
 20
-1146.7795290171
 10
1241.7066582027
 20
-1155.1410241302
 10
1240.2229809519
 20
-1163.3119121743
 10
1238.4956952116
 20
-1171.2842094988
 10
1236.5264886862
 20
-1179.0501264933
 10
1234.3172854575
 20
-1186.6020751982
 10
1231.8702441045
 20
-1193.9326767194
 10
1229.1877555941
 20
-1201.0347684375
 10
1226.272440945
 20
-1207.9014110066
 10
1223.1271486668
 20
-1214.5258951346
 10
1219.7549519768
 20
-1220.9017481389
 10
1216.1591457971
 20
-1227.0227402704
 10
1212.3432435354
 20
-1232.8828908006
 10
1208.3109736516
 20
-1238.4764738657
 10
1204.0662760154
 20
-1243.7980240605
 10
1199.6132980563
 20
-1248.8423417794
 10
1194.9563907115
 20
-1253.6044982961
 10
1190.1001041742
 20
-1258.0798405799
 10
1185.0491834483
 20
-1262.2639958419
 10
1179.8085637115
 20
-1266.1528758076
 10
1174.3833654939
 20
-1269.7426807114
 10
1168.778889674
 20
-1273.0299030097
 10
1163.0006123001
 20
-1276.0113308073
 10
1157.054179239
 20
-1278.6840509967
 10
1150.9454006603
 20
-1281.0454521034
 10
1144.6802453584
 20
-1283.0932268384
 10
1138.2648349216
 20
-1284.825374352
 10
1131.7054377497
 20
-1286.2402021894
 10
1125.0084629301
 20
-1287.3363279437
 10
1118.180453975
 20
-1288.1126806071
 10
1111.2280824282
 20
-1288.5685016172
 10
1104.1581413463
 20
-1288.7033455983
 10
1096.9775386612
 20
-1288.5170807963
 10
1089.6932904306
 20
-1288.0098892077
 10
1082.3125139828
 20
-1287.1822664018
 10
1074.8424209623
 20
-1286.0350210362
 10
1067.2903102833
 20
-1284.5692740668
 10
1059.6635609985
 20
-1282.7864576529
 10
1051.9696250886
 20
-1280.6883137572
 10
1044.2160201814
 20
-1278.2768924442
 10
1036.4103222064
 20
-1275.554549877
 10
1028.5601579925
 20
-1272.5239460151
 10
1020.6731978159
 20
-1269.1880420156
 10
1012.7571479053
 20
-1265.5500973395
 10
1004.8197429128
 20
-1261.6136665673
 10
996.8687383562
 20
-1257.3825959256
 10
988.9119030412
 20
-1252.8610195293
 10
980.9570114706
 20
-1248.0533553418
 10
973.0118362481
 20
-1242.9643008588
 10
965.0841404836
 20
-1237.5988285181
 10
957.181670208
 20
-1231.9621808412
 10
949.3121468051
 20
-1226.0598653108
 10
941.4832594664
 20
-1219.8976489896
 10
933.7026576788
 20
-1213.4815528856
 10
925.9779437501
 20
-1206.8178460688
 10
918.3166653807
 20
-1199.9130395458
 10
910.7263082894
 20
-1192.773879898
 10
903.2142888986
 20
-1185.4073426899
 10
895.7879470883
 20
-1177.820625653
 10
888.4545390243
 20
-1170.0211416532
 10
881.2212300679
 20
-1162.0165114477
 10
874.0950877756
 20
-1153.814556239
 10
867.0830749926
 20
-1145.4232900329
 10
860.1920430499
 20
-1136.8509118081
 10
853.4287250702
 20
-1128.1057975049
 10
846.7997293886
 20
-1119.1964918417
 10
840.3115330961
 20
-1110.1316999656
 10
833.9704757106
 20
-1100.9202789469
 10
827.782752983
 20
-1091.571229125
 10
821.7544108429
 20
-1082.0936853146
 10
815.891339492
 20
-1072.4969078794
 10
810.199267648
 20
-1062.790273685
 10
804.6837569479
 20
-1052.983266936
 10
799.3501965133
 20
-1043.0854699096
 10
794.2037976851
 20
-1033.1065535929
 10
789.2495889312
 20
-1023.0562682332
 10
784.4924109339
 20
-1012.9444338117
 10
779.9369118593
 20
-1002.7809304481
 10
775.5875428165
 20
-992.5756887469
 10
771.4485535077
 20
-982.3386800948
 10
767.5239880765
 20
-972.0799069173
 10
763.8176811561
 20
-961.8093929056
 10
760.3332541227
 20
-951.537173223
 10
757.0741115569
 20
-941.2732846991
 10
754.0434379175
 20
-931.0277560234
 10
751.2441944296
 20
-920.8105979461
 10
748.6791161914
 20
-910.6317934973
 10
746.3507095018
 20
-900.5012882319
 10
744.2612494118
 20
-890.4289805126
 10
742.4127775009
 20
-880.4247118383
 10
740.8070998829
 20
-870.4982572277
 10
739.4457854412
 20
-860.6593156688
 10
738.3301642952
 20
-850.9175006419
 10
737.4613265015
 20
-841.2823307262
 10
736.8401209883
 20
-831.7632202999
 10
736.467154726
 20
-822.369470341
 10
736.3427921343
 20
-813.1102593398
  0
SPLINE
  5
110
330
1F
100
AcDbEntity
  8
0
  6
Continuous
 62
     7
370
    25
100
AcDbSpline
210
0.0
220
0.0
230
1.0
 70
     8
 71
     3
 72
    13
 73
     9
 74
     0
 42
0.00000001
 43
0.00000001
 40
0.0
 40
0.0
 40
0.0
 40
0.0
 40
0.1909104520994504
 40
0.3818011948347216
 40
0.5731654614521704
 40
0.7649654392844052
 40
0.9567023362910394
 40
1.0
 40
1.0
 40
1.0
 40
1.0
 10
976.0155171594216
 20
-651.7168198412455
 30
0.0
 10
975.2265177252208
 20
-651.8061450644562
 30
0.0
 10
973.6486003121665
 20
-651.9847862890495
 30
0.0
 10
971.3584444203341
 20
-651.7118505577262
 30
0.0
 10
969.430903382533
 20
-651.0735453145745
 30
0.0
 10
968.1536988552374
 20
-650.1009171855852
 30
0.0
 10
967.5704886694772
 20
-649.2274015750396
 30
0.0
 10
967.6864286896742
 20
-648.7139866023091
 30
0.0
 10
967.7077869613668
 20
-648.6194061764994
 30
0.0
  0
SPLINE
  5
111
330
1F
100
AcDbEntity
  8
0
  6
Continuous
 62
     7
370
    25
100
AcDbSpline
210
0.0
220
0.0
230
1.0
 70
     8
 71
     3
 72
    12
 73
     8
 74
     0
 42
0.00000001
 43
0.00000001
 40
0.0
 40
0.0
 40
0.0
 40
0.0
 40
0.1128586769259361
 40
0.358138931561362
 40
0.6029045227592438
 40
0.8476651533348856
 40
1.0
 40
1.0
 40
1.0
 40
1.0
 10
981.5387404806332
 20
-647.6808784878064
 30
0.0
 10
981.5604354465036
 20
-647.8743193099941
 30
0.0
 10
981.629280945216
 20
-648.4881727704966
 30
0.0
 10
980.89868085062
 20
-649.5413512496948
 30
0.0
 10
979.4676794699826
 20
-650.6422557185984
 30
0.0
 10
977.7112427905546
 20
-651.373605172803
 30
0.0
 10
976.4856734153931
 20
-651.6216602702945
 30
0.0
 10
976.0155171594216
 20
-651.7168198412455
 30
0.0
  0
SPLINE
  5
112
330
1F
100
AcDbEntity
  8
0
  6
Continuous
 62
     7
370
    25
100
AcDbSpline
210
0.0
220
0.0
230
1.0
 70
     8
 71
     3
 72
    12
 73
     8
 74
     0
 42
0.00000001
 43
0.00000001
 40
0.0
 40
0.0
 40
0.0
 40
0.0
 40
0.2364865328878497
 40
0.4729468751753926
 40
0.7099476822378825
 40
0.9469334209355159
 40
0.9999999999999999
 40
0.9999999999999999
 40
0.9999999999999999
 40
0.9999999999999999
 10
1023.159788092339
 20
-681.140649187846
 30
0.0
 10
1022.389404386504
 20
-680.9796072101392
 30
0.0
 10
1020.848722293907
 20
-680.6575410899317
 30
0.0
 10
1018.92547113048
 20
-679.6015900806332
 30
0.0
 10
1017.648801349003
 20
-678.2684759901007
 30
0.0
 10
1017.067318221198
 20
-677.1315888704372
 30
0.0
 10
1017.183595096518
 20
-676.5240812476623
 30
0.0
 10
1017.204868555199
 20
-676.4129345705903
 30
0.0
  0
SPLINE
  5
113
330
1F
100
AcDbEntity
  8
0
  6
Continuous
 62
     7
370
    25
100
AcDbSpline
210
0.0
220
0.0
230
1.0
 70
     8
 71
     3
 72
    13
 73
     9
 74
     0
 42
0.00000001
 43
0.00000001
 40
0.0
 40
0.0
 40
0.0
 40
0.0
 40
0.0918035550207432
 40
0.2901147646638217
 40
0.4871572139377762
 40
0.6830610508164618
 40
0.8786405431344969
 40
1.0
 40
1.0
 40
1.0
 40
1.0
 10
1031.035234419289
 20
-677.0330209270635
 30
0.0
 10
1031.056970629379
 20
-677.27229597733
 30
0.0
 10
1031.125660730471
 20
-678.0284456153515
 30
0.0
 10
1030.386252311732
 20
-679.2130257410197
 30
0.0
 10
1028.942937747046
 20
-680.371344141033
 30
0.0
 10
1026.925603070371
 20
-681.0971132191295
 30
0.0
 10
1024.900027527595
 20
-681.3205470961755
 30
0.0
 10
1023.64163906365
 20
-681.1904607138401
 30
0.0
 10
1023.159788092339
 20
-681.140649187846
 30
0.0
  0
LWPOLYLINE
  5
114
330
1F
100
AcDbEntity
  8
0
  6
Continuous
 62
     7
370
    25
100
AcDbPolyline
 90
      189
 70
   128
 43
0.0
 10
768.1625972877
 20
-831.4794418558
 10
768.2869826207
 20
-822.9565698569
 10
768.6599996973
 20
-814.5868290682
 10
769.281231905
 20
-806.3795674236
 10
770.1499854064
 20
-798.3439513882
 10
771.2652899148
 20
-790.4889557209
 10
772.6258997771
 20
-782.8233534505
 10
774.2302953655
 20
-775.3557060779
 10
776.0766847746
 20
-768.0943540132
 10
778.1630058229
 20
-761.0474072612
 10
780.4869283556
 20
-754.2227363633
 10
783.0458568475
 20
-747.6279636068
 10
785.8369333016
 20
-741.2704545125
 10
788.8570404413
 20
-735.1573096077
 10
792.1028051918
 20
-729.295356496
 10
795.5706024477
 20
-723.6911422319
 10
799.2565591213
 20
-718.3509260083
 10
803.1565584689
 20
-713.2806721663
 10
807.2662446884
 20
-708.4860435329
 10
811.581027784
 20
-703.9723950974
 10
816.0960886929
 20
-699.7447680297
 10
820.8063846677
 20
-695.8078840503
 10
825.7066549082
 20
-692.1661401569
 10
830.7914264369
 20
-688.8236037133
 10
836.0550202124
 20
-685.7840079065
 10
841.4915574711
 20
-683.0507475778
 10
847.094966294
 20
-680.6268754304
 10
852.8589883875
 20
-678.5150986206
 10
858.7771860738
 20
-676.717775734
 10
864.8429494803
 20
-675.2369141511
 10
871.0495039225
 20
-674.0741678056
 10
877.38991747
 20
-673.2308353369
 10
883.8571086892
 20
-672.70785864
 10
890.4438545518
 20
-672.505821813
 10
897.1427985021
 20
-672.6249505055
 10
903.9464586737
 20
-673.0651116658
 10
910.8472362453
 20
-673.82581369
 10
917.8374239279
 20
-674.906206971
 10
924.909214573
 20
-676.3050848471
 10
932.0547098917
 20
-678.02088495
 10
939.2659292764
 20
-680.0516909498
 10
946.5348187144
 20
-682.3952346949
 10
953.8532597825
 20
-685.0488987458
 10
961.213078715
 20
-688.0097192979
 10
968.6060555322
 20
-691.274389492
 10
976.0239332213
 20
-694.8392631077
 10
983.4584269583
 20
-698.7003586356
 10
990.9012333614
 20
-702.8533637239
 10
998.3440397645
 20
-707.2936399955
 10
1005.7785335016
 20
-712.0162282276
 10
1013.1964111906
 20
-717.0158538912
 10
1020.5893880078
 20
-722.2869330416
 10
1027.9492069403
 20
-727.8235785553
 10
1035.2676480085
 20
-733.619606705
 10
1042.5365374464
 20
-739.6685440659
 10
1049.7477568312
 20
-745.9636347461
 10
1056.8932521498
 20
-752.4978479316
 10
1063.9650427949
 20
-759.2638857392
 10
1070.9552304776
 20
-766.254191367
 10
1077.8560080492
 20
-773.4609575346
 10
1084.6596682207
 20
-780.8761352028
 10
1091.3586121711
 20
-788.4914425633
 10
1097.9453580336
 20
-796.2983742884
 10
1104.4125492528
 20
-804.2882110305
 10
1110.7529628004
 20
-812.4520291602
 10
1116.9595172425
 20
-820.7807107334
 10
1123.025280649
 20
-829.2649536743
 10
1128.9434783353
 20
-837.8952821648
 10
1134.7075004289
 20
-846.6620572282
 10
1140.3109092517
 20
-855.5554874941
 10
1145.7474465105
 20
-864.5656401344
 10
1151.0110402859
 20
-873.6824519571
 10
1156.0958118147
 20
-882.8957406454
 10
1160.9960820551
 20
-892.1952161302
 10
1165.7063780299
 20
-901.5704920826
 10
1170.2214389389
 20
-911.0110975145
 10
1174.5362220345
 20
-920.5064884728
 10
1178.6459082539
 20
-930.0460598161
 10
1182.5459076015
 20
-939.6191570592
 10
1186.2318642752
 20
-949.2150882727
 10
1189.699661531
 20
-958.8231360244
 10
1192.9454262815
 20
-968.4325693497
 10
1195.9655334212
 20
-978.0326557364
 10
1198.7566098753
 20
-987.6126731116
 10
1201.3155383672
 20
-997.161921817
 10
1203.6394608999
 20
-1006.6697365589
 10
1205.7257819482
 20
-1016.1254983202
 10
1207.5721713574
 20
-1025.5186462201
 10
1209.1765669458
 20
-1034.8386893098
 10
1210.5371768081
 20
-1044.075218289
 10
1211.6524813164
 20
-1053.2179171322
 10
1212.5212348179
 20
-1062.25657461
 10
1213.1424670255
 20
-1071.1810956943
 10
1213.5154841021
 20
-1079.9815128323
 10
1213.6398694352
 20
-1088.64799708
 10
1213.5154841021
 20
-1097.170869079
 10
1213.1424670255
 20
-1105.5406098676
 10
1212.5212348179
 20
-1113.7478715122
 10
1211.6524813164
 20
-1121.7834875476
 10
1210.5371768081
 20
-1129.638483215
 10
1209.1765669458
 20
-1137.3040854853
 10
1207.5721713574
 20
-1144.771732858
 10
1205.7257819482
 20
-1152.0330849227
 10
1203.6394608999
 20
-1159.0800316746
 10
1201.3155383672
 20
-1165.9047025726
 10
1198.7566098753
 20
-1172.499475329
 10
1195.9655334212
 20
-1178.8569844233
 10
1192.9454262815
 20
-1184.9701293281
 10
1189.699661531
 20
-1190.8320824399
 10
1186.2318642752
 20
-1196.436296704
 10
1182.5459076015
 20
-1201.7765129275
 10
1178.6459082539
 20
-1206.8467667696
 10
1174.5362220345
 20
-1211.6413954029
 10
1170.2214389389
 20
-1216.1550438384
 10
1165.7063780299
 20
-1220.3826709062
 10
1160.9960820551
 20
-1224.3195548855
 10
1156.0958118147
 20
-1227.9612987789
 10
1151.0110402859
 20
-1231.3038352226
 10
1145.7474465105
 20
-1234.3434310293
 10
1140.3109092517
 20
-1237.0766913581
 10
1134.7075004289
 20
-1239.5005635055
 10
1128.9434783353
 20
-1241.6123403152
 10
1123.025280649
 20
-1243.4096632019
 10
1116.9595172425
 20
-1244.8905247847
 10
1110.7529628004
 20
-1246.0532711302
 10
1104.4125492528
 20
-1246.8966035989
 10
1097.9453580336
 20
-1247.4195802959
 10
1091.3586121711
 20
-1247.6216171228
 10
1084.6596682207
 20
-1247.5024884303
 10
1077.8560080492
 20
-1247.06232727
 10
1070.9552304776
 20
-1246.3016252458
 10
1063.9650427949
 20
-1245.2212319649
 10
1056.8932521498
 20
-1243.8223540888
 10
1049.7477568312
 20
-1242.1065539858
 10
1042.5365374464
 20
-1240.0757479861
 10
1035.2676480085
 20
-1237.7322042409
 10
1027.9492069403
 20
-1235.07854019
 10
1020.5893880078
 20
-1232.1177196379
 10
1013.1964111906
 20
-1228.8530494438
 10
1005.7785335016
 20
-1225.2881758281
 10
998.3440397645
 20
-1221.4270803003
 10
990.9012333614
 20
-1217.2740752119
 10
983.4584269583
 20
-1212.8337989404
 10
976.0239332213
 20
-1208.1112107082
 10
968.6060555322
 20
-1203.1115850447
 10
961.213078715
 20
-1197.8405058942
 10
953.8532597825
 20
-1192.3038603805
 10
946.5348187144
 20
-1186.5078322309
 10
939.2659292764
 20
-1180.4588948699
 10
932.0547098916
 20
-1174.1638041897
 10
924.909214573
 20
-1167.6295910042
 10
917.8374239279
 20
-1160.8635531967
 10
910.8472362453
 20
-1153.8732475689
 10
903.9464586737
 20
-1146.6664814012
 10
897.1427985021
 20
-1139.251303733
 10
890.4438545518
 20
-1131.6359963725
 10
883.8571086892
 20
-1123.8290646474
 10
877.38991747
 20
-1115.8392279054
 10
871.0495039224
 20
-1107.6754097756
 10
864.8429494803
 20
-1099.3467282024
 10
858.7771860738
 20
-1090.8624852616
 10
852.8589883875
 20
-1082.232156771
 10
847.094966294
 20
-1073.4653817076
 10
841.4915574711
 20
-1064.5719514418
 10
836.0550202124
 20
-1055.5617988015
 10
830.7914264369
 20
-1046.4449869788
 10
825.7066549082
 20
-1037.2316982905
 10
820.8063846677
 20
-1027.9322228057
 10
816.0960886929
 20
-1018.5569468532
 10
811.581027784
 20
-1009.1163414214
 10
807.2662446884
 20
-999.6209504631
 10
803.1565584689
 20
-990.0813791197
 10
799.2565591213
 20
-980.5082818766
 10
795.5706024477
 20
-970.9123506631
 10
792.1028051918
 20
-961.3043029114
 10
788.8570404413
 20
-951.6948695861
 10
785.8369333016
 20
-942.0947831994
 10
783.0458568475
 20
-932.5147658242
 10
780.4869283556
 20
-922.9655171189
 10
778.1630058229
 20
-913.4577023769
 10
776.0766847746
 20
-904.0019406157
 10
774.2302953655
 20
-894.6087927157
 10
772.6258997771
 20
-885.2887496261
 10
771.2652899148
 20
-876.0522206469
 10
770.1499854064
 20
-866.9095218037
 10
769.281231905
 20
-857.8708643258
 10
768.6599996973
 20
-848.9463432416
 10
768.2869826207
 20
-840.1459261035
 10
768.1625972877
 20
-831.4794418558
  0
LWPOLYLINE
  5
115
330
1F
100
AcDbEntity
  8
0
  6
Continuous
 62
     7
370
    25
100
AcDbPolyline
 90
       18
 70
   128
 43
0.0
 10
1184.1266418249
 20
-943.6636572873
 10
1181.4458333802
 20
-940.3114838635
 10
1175.1054198327
 20
-932.1476657337
 10
1168.8988653905
 20
-923.8189841605
 10
1162.833101984
 20
-915.3347412197
 10
1156.9149042978
 20
-906.7044127291
 10
1151.1508822042
 20
-897.9376376657
 10
1145.5474733813
 20
-889.0442073999
 10
1140.1109361226
 20
-880.0340547596
 10
1134.8473423471
 20
-870.9172429369
 10
1129.7625708184
 20
-861.7039542486
 10
1124.8623005779
 20
-852.4044787638
 10
1120.1520046031
 20
-843.0292028114
 10
1115.6369436942
 20
-833.5885973795
 10
1111.3221605986
 20
-824.0932064212
 10
1107.2124743791
 20
-814.5536350778
 10
1103.3124750315
 20
-804.9805378347
 10
1101.7317408081
 20
-800.9360376067
  0
LWPOLYLINE
  5
116
330
1F
100
AcDbEntity
  8
0
  6
Continuous
 62
     7
370
    25
100
AcDbPolyline
 90
       22
 70
   128
 43
0.0
 10
1117.6361422024
 20
-471.2651511707
 10
1119.9472554022
 20
-470.040664566
 10
1125.8103267531
 20
-467.2132452229
 10
1131.8386688932
 20
-464.6958770958
 10
1138.0263916209
 20
-462.491019867
 10
1144.3674490063
 20
-460.6008278688
 10
1150.8556452989
 20
-459.0271479792
 10
1157.4846409804
 20
-457.7715178169
 10
1164.2479589601
 20
-456.8351642389
 10
1171.1389909028
 20
-456.2190021422
 10
1178.1510036858
 20
-455.9236335694
 10
1185.2771459782
 20
-455.9493471206
 10
1192.5104549345
 20
-456.2961176715
 10
1199.8438629986
 20
-456.9636063979
 10
1207.2702048088
 20
-457.9511611066
 10
1214.7822241996
 20
-459.257816873
 10
1222.372581291
 20
-460.8822969836
 10
1230.0338596603
 20
-462.8230141836
 10
1237.7585735891
 20
-465.0780722277
 10
1245.5391753766
 20
-467.6452677329
 10
1253.3680627153
 20
-470.5220923315
 10
1260.0130823073
 20
-473.1913082229
  0
ARC
  5
117
330
1F
100
AcDbEntity
  8
0
  6
Continuous
 62
     7
370
    25
100
AcDbCircle
 10
1129.2604895431
 20
-778.6511536159
 30
0.0
 40
332.328308464425
100
AcDbArc
 50
56.4186422121
 51
65.1877902668
  0
LWPOLYLINE
  5
118
330
1F
100
AcDbEntity
  8
0
  6
Continuous
 62
     7
370
    25
100
AcDbPolyline
 90
       74
 70
   128
 43
0.0
 10
1318.1717797409
 20
-505.207715647
 10
1324.7291137261
 20
-509.7856313667
 10
1332.6160739028
 20
-515.5558177586
 10
1340.4662381166
 20
-521.5888205738
 10
1348.2719360916
 20
-527.878745057
 10
1356.0255409988
 20
-534.4194454186
 10
1363.7194769087
 20
-541.2045308396
 10
1371.3462261935
 20
-548.2273717163
 10
1378.8983368725
 20
-555.4811061375
 10
1386.3684298931
 20
-562.9586465897
 10
1393.7492063408
 20
-570.6526868817
 10
1401.0334545714
 20
-578.5557092837
 10
1408.2140572565
 20
-586.6599918726
 10
1415.2839983384
 20
-594.9576160772
 10
1422.2363698852
 20
-603.4404744149
 10
1429.0643788403
 20
-612.1002784139
 10
1435.7613536599
 20
-620.9285667112
 10
1442.3207508318
 20
-629.9167133206
 10
1448.7361612687
 20
-639.0559360607
 10
1455.0013165705
 20
-648.3373051357
 10
1461.1100951492
 20
-657.7517518612
 10
1467.0565282103
 20
-667.2900775243
 10
1472.8348055842
 20
-676.942962372
 10
1478.4392814041
 20
-686.7009747172
 10
1483.8644796217
 20
-696.5545801544
 10
1489.1050993585
 20
-706.4941508755
 10
1494.1560200844
 20
-716.5099750771
 10
1499.0123066217
 20
-726.5922664496
 10
1503.6692139665
 20
-736.7311737393
 10
1508.1221919256
 20
-746.9167903741
 10
1512.3668895618
 20
-757.1391641427
 10
1516.3991594456
 20
-767.3883069192
 10
1520.2150617074
 20
-777.654204422
 10
1523.810867887
 20
-787.9268259985
 10
1527.183064577
 20
-798.1961344265
 10
1530.3283568552
 20
-808.4520957208
 10
1533.2436715043
 20
-818.6846889376
 10
1535.9261600148
 20
-828.8839159654
 10
1538.3732013677
 20
-839.0398112946
 10
1540.5824045964
 20
-849.1424517544
 10
1542.5516111218
 20
-859.1819662082
 10
1544.2788968622
 20
-869.1485451991
 10
1545.7625741129
 20
-879.0324505342
 10
1547.0011931955
 20
-888.8240248
 10
1547.9935438741
 20
-898.513700798
 10
1548.7386565379
 20
-908.0920108931
 10
1549.2358031487
 20
-917.5495962641
 10
1549.484497952
 20
-926.8772160482
 10
1549.484497952
 20
-936.0657563697
 10
1549.2358031487
 20
-945.1062392457
 10
1548.7386565379
 20
-953.9898313577
 10
1547.9935438741
 20
-962.7078526829
 10
1547.0011931955
 20
-971.2517849753
 10
1545.7625741129
 20
-979.6132800883
 10
1544.2788968622
 20
-987.7841681324
 10
1542.5516111218
 20
-995.7564654569
 10
1540.5824045964
 20
-1003.5223824514
 10
1538.3732013677
 20
-1011.0743311564
 10
1535.9261600148
 20
-1018.4049326775
 10
1533.2436715043
 20
-1025.5070243956
 10
1530.3283568552
 20
-1032.3736669647
 10
1527.183064577
 20
-1038.9981510928
 10
1523.810867887
 20
-1045.374004097
 10
1520.2150617074
 20
-1051.4949962285
 10
1516.3991594456
 20
-1057.3551467587
 10
1512.3668895618
 20
-1062.9487298238
 10
1508.1221919256
 20
-1068.2702800186
 10
1503.6692139665
 20
-1073.3145977375
 10
1499.0123066217
 20
-1078.0767542542
 10
1494.1560200844
 20
-1082.552096538
 10
1489.1050993585
 20
-1086.7362518
 10
1483.8644796217
 20
-1090.6251317657
 10
1478.4392814041
 20
-1094.2149366695
 10
1477.5681452633
 20
-1094.7529500549
  0
SPLINE
  5
119
330
1F
100
AcDbEntity
  8
0
  6
Continuous
 62
     7
370
    25
100
AcDbSpline
210
0.0
220
0.0
230
1.0
 70
     8
 71
     3
 72
    12
 73
     8
 74
     0
 42
0.00000001
 43
0.00000001
 40
0.0
 40
0.0
 40
0.0
 40
0.0
 40
0.2493555046317143
 40
0.4987155110512052
 40
0.7478266880725263
 40
0.9959051355223825
 40
1.0
 40
1.0
 40
1.0
 40
1.0
 10
1309.76907190782
 20
-515.1429074655807
 30
0.0
 10
1309.012710164765
 20
-514.9370426094245
 30
0.0
 10
1307.499973023533
 20
-514.5253091804911
 30
0.0
 10
1305.675365953419
 20
-513.3852055451138
 30
0.0
 10
1304.564345987316
 20
-512.0277718617383
 30
0.0
 10
1304.092995475821
 20
-511.0022927471931
 30
0.0
 10
1304.224903439078
 20
-510.52565935836
 30
0.0
 10
1304.227045399419
 20
-510.5179196450736
 30
0.0
  0
SPLINE
  5
11A
330
1F
100
AcDbEntity
  8
0
  6
Continuous
 62
     7
370
    25
100
AcDbSpline
210
0.0
220
0.0
230
1.0
 70
     8
 71
     3
 72
    13
 73
     9
 74
     0
 42
0.00000001
 43
0.00000001
 40
0.0
 40
0.0
 40
0.0
 40
0.0
 40
0.1278934349546524
 40
0.3170161970031768
 40
0.5051662570615983
 40
0.6930773942994397
 40
0.8816815397601758
 40
1.0
 40
1.0
 40
1.0
 40
1.0
 10
1318.132447152837
 20
-511.4550053644331
 30
0.0
 10
1318.132447514409
 20
-511.7906571592512
 30
0.0
 10
1318.132448410657
 20
-512.6226549513835
 30
0.0
 10
1317.229976903206
 20
-513.7967673297226
 30
0.0
 10
1315.657599448347
 20
-514.7979742098295
 30
0.0
 10
1313.568262330553
 20
-515.3546223118232
 30
0.0
 10
1311.508844150977
 20
-515.4336238670613
 30
0.0
 10
1310.253143624937
 20
-515.2237959774031
 30
0.0
 10
1309.76907190782
 20
-515.1429074655807
 30
0.0
  0
SPLINE
  5
11B
330
1F
100
AcDbEntity
  8
0
  6
Continuous
 62
     7
370
    25
100
AcDbSpline
210
0.0
220
0.0
230
1.0
 70
     8
 71
     3
 72
    13
 73
     9
 74
     0
 42
0.00000001
 43
0.00000001
 40
0.0
 40
0.0
 40
0.0
 40
0.0
 40
0.1900773892696727
 40
0.380135051676214
 40
0.5707187756725439
 40
0.7621972777026562
 40
0.9543347224117378
 40
1.0
 40
1.0
 40
1.0
 40
1.0
 10
1263.09386838045
 20
-485.8631193072284
 30
0.0
 10
1262.30752134327
 20
-485.9323234089022
 30
0.0
 10
1260.734908878619
 20
-486.070724430018
 30
0.0
 10
1258.452227311049
 20
-485.7653378666081
 30
0.0
 10
1256.529214879865
 20
-485.1199405903196
 30
0.0
 10
1255.248365125575
 20
-484.1684562944569
 30
0.0
 10
1254.659158324993
 20
-483.3196228617416
 30
0.0
 10
1254.773890509306
 20
-482.8261554007899
 30
0.0
 10
1254.795922540708
 20
-482.7313948010481
 30
0.0
  0
SPLINE
  5
11C
330
1F
100
AcDbEntity
  8
0
  6
Continuous
 62
     7
370
    25
100
AcDbSpline
210
0.0
220
0.0
230
1.0
 70
     8
 71
     3
 72
    12
 73
     8
 74
     0
 42
0.00000001
 43
0.00000001
 40
0.0
 40
0.0
 40
0.0
 40
0.0
 40
0.1109805478954759
 40
0.3573016531096381
 40
0.602784537956677
 40
0.8476146380000309
 40
1.0
 40
1.0
 40
1.0
 40
1.0
 10
1268.623881668311
 20
-482.1060083453157
 30
0.0
 10
1268.6461442776
 20
-482.2884620706394
 30
0.0
 10
1268.717818703906
 20
-482.8758714762552
 30
0.0
 10
1267.989475932065
 20
-483.870821181604
 30
0.0
 10
1266.556305569038
 20
-484.9008360042238
 30
0.0
 10
1264.794484273268
 20
-485.5683361742346
 30
0.0
 10
1263.565390541832
 20
-485.7813861065716
 30
0.0
 10
1263.09386838045
 20
-485.8631193072284
 30
0.0
  0
LWPOLYLINE
  5
11D
330
1F
100
AcDbEntity
  8
0
  6
Continuous
 62
     7
370
    25
100
AcDbPolyline
 90
       29
 70
   128
 43
0.0
 10
1029.0849995455
 20
-668.5575880242
 10
1030.0623214718
 20
-669.2650673541
 10
1030.7424353893
 20
-670.0803541074
 10
1031.0912375464
 20
-670.9625664019
 10
1031.0912375464
 20
-671.8674664293
 10
1030.7424353893
 20
-672.7496787238
 10
1030.0623214718
 20
-673.564965477
 10
1029.0849995455
 20
-674.272444807
 10
1027.8594766128
 20
-674.8366407458
 10
1026.4472055109
 20
-675.2292621532
 10
1024.9190034099
 20
-675.4306213524
 10
1023.3515007445
 20
-675.4306213524
 10
1021.8232986435
 20
-675.2292621532
 10
1020.4110275416
 20
-674.8366407458
 10
1019.1855046089
 20
-674.272444807
 10
1018.2081826826
 20
-673.564965477
 10
1017.528068765
 20
-672.7496787238
 10
1017.1792666079
 20
-671.8674664293
 10
1017.1792666079
 20
-670.9625664019
 10
1017.528068765
 20
-670.0803541074
 10
1018.2081826826
 20
-669.2650673541
 10
1019.1855046089
 20
-668.5575880242
 10
1020.4110275416
 20
-667.9933920854
 10
1021.8232986435
 20
-667.600770678
 10
1023.3515007445
 20
-667.3994114787
 10
1024.9190034099
 20
-667.3994114787
 10
1026.4472055109
 20
-667.600770678
 10
1027.8594766128
 20
-667.9933920854
 10
1029.0849995455
 20
-668.5575880242
  0
LWPOLYLINE
  5
11E
330
1F
100
AcDbEntity
  8
0
  6
Continuous
 62
     7
370
    25
100
AcDbPolyline
 90
       24
 70
   128
 43
0.0
 10
1027.6707859831
 20
-669.373996136
 10
1028.4935544274
 20
-670.0003433859
 10
1028.9930875242
 20
-670.7316104626
 10
1029.132337189
 20
-671.5135626325
 10
1028.9009759113
 20
-672.2882060803
 10
1028.3161626985
 20
-672.9980890453
 10
1027.4212704713
 20
-673.5905627554
 10
1026.2826692923
 20
-674.0216861459
 10
1024.9848040023
 20
-674.2594847673
 10
1023.6239313325
 20
-674.2863221835
 10
1022.3009809831
 20
-674.1002079864
 10
1021.1140701296
 20
-673.7149454143
 10
1020.1512265201
 20
-673.1591076299
 10
1019.4838598605
 20
-672.4739185788
 10
1019.1614656829
 20
-671.7101955984
 10
1019.2079544886
 20
-670.9245805284
 10
1019.6198784156
 20
-670.1753388446
 10
1020.3666869506
 20
-669.518038375
 10
1021.3929927209
 20
-669.0014280886
 10
1022.6226793228
 20
-668.663822607
 10
1023.9645465263
 20
-668.5302605843
 10
1025.3190741795
 20
-668.6106477047
 10
1026.5858031631
 20
-668.8990220233
 10
1027.6707859831
 20
-669.373996136
  0
SPLINE
  5
11F
330
1F
100
AcDbEntity
  8
0
  6
Continuous
 62
     7
370
    25
100
AcDbSpline
210
0.0
220
0.0
230
1.0
 70
     8
 71
     3
 72
    11
 73
     7
 74
     0
 42
0.00000001
 43
0.00000001
 40
0.0
 40
0.0
 40
0.0
 40
0.0
 40
0.2863992545272485
 40
0.6200937131516244
 40
0.9543883550950614
 40
0.9999999999999999
 40
0.9999999999999999
 40
0.9999999999999999
 40
0.9999999999999999
 10
1021.594236751433
 20
-673.8527061806415
 30
0.0
 10
1022.023172894355
 20
-673.724985290943
 30
0.0
 10
1022.951878543427
 20
-673.4484520266686
 30
0.0
 10
1024.569801906003
 20
-673.4752720835236
 30
0.0
 10
1025.797886971352
 20
-673.6524055897803
 30
0.0
 10
1026.317191434066
 20
-673.9087581222458
 30
0.0
 10
1026.379539259229
 20
-673.9395358721438
 30
0.0
  0
LWPOLYLINE
  5
120
330
1F
100
AcDbEntity
  8
0
  6
Continuous
 62
     7
370
    25
100
AcDbPolyline
 90
       29
 70
   128
 43
0.0
 10
969.6880299258
 20
-645.6981608932
 10
968.7107079995
 20
-644.9906815632
 10
968.030594082
 20
-644.17539481
 10
967.6817919249
 20
-643.2931825155
 10
967.6817919249
 20
-642.3882824881
 10
968.030594082
 20
-641.5060701936
 10
968.7107079995
 20
-640.6907834403
 10
969.6880299258
 20
-639.9833041104
 10
970.9135528585
 20
-639.4191081716
 10
972.3258239604
 20
-639.0264867642
 10
973.8540260614
 20
-638.8251275649
 10
975.4215287269
 20
-638.8251275649
 10
976.9497308278
 20
-639.0264867642
 10
978.3620019297
 20
-639.4191081716
 10
979.5875248624
 20
-639.9833041104
 10
980.5648467887
 20
-640.6907834403
 10
981.2449607063
 20
-641.5060701936
 10
981.5937628634
 20
-642.3882824881
 10
981.5937628634
 20
-643.2931825155
 10
981.2449607063
 20
-644.17539481
 10
980.5648467887
 20
-644.9906815632
 10
979.5875248624
 20
-645.6981608932
 10
978.3620019297
 20
-646.262356832
 10
976.9497308278
 20
-646.6549782394
 10
975.4215287269
 20
-646.8563374386
 10
973.8540260614
 20
-646.8563374386
 10
972.3258239604
 20
-646.6549782394
 10
970.9135528585
 20
-646.262356832
 10
969.6880299258
 20
-645.6981608932
  0
LWPOLYLINE
  5
121
330
1F
100
AcDbEntity
  8
0
  6
Continuous
 62
     7
370
    25
100
AcDbPolyline
 90
       24
 70
   128
 43
0.0
 10
971.1022434882
 20
-644.8817527813
 10
970.279475044
 20
-644.2554055315
 10
969.7799419471
 20
-643.5241384548
 10
969.6406922823
 20
-642.7421862849
 10
969.8720535601
 20
-641.967542837
 10
970.4568667729
 20
-641.2576598721
 10
971.351759
 20
-640.665186162
 10
972.490360179
 20
-640.2340627715
 10
973.788225469
 20
-639.9962641501
 10
975.1490981388
 20
-639.9694267338
 10
976.4720484882
 20
-640.155540931
 10
977.6589593417
 20
-640.5408035031
 10
978.6218029512
 20
-641.0966412875
 10
979.2891696108
 20
-641.7818303386
 10
979.6115637884
 20
-642.5455533189
 10
979.5650749827
 20
-643.331168389
 10
979.1531510558
 20
-644.0804100728
 10
978.4063425208
 20
-644.7377105424
 10
977.3800367504
 20
-645.2543208288
 10
976.1503501485
 20
-645.5919263104
 10
974.8084829451
 20
-645.7254883331
 10
973.4539552918
 20
-645.6451012127
 10
972.1872263082
 20
-645.3567268941
 10
971.1022434882
 20
-644.8817527813
  0
LWPOLYLINE
  5
122
330
1F
100
AcDbEntity
  8
0
  6
Continuous
 62
     7
370
    25
100
AcDbPolyline
 90
       29
 70
   128
 43
0.0
 10
1306.2708577706
 20
-508.541598107
 10
1305.2935358443
 20
-507.834118777
 10
1304.6134219268
 20
-507.0188320238
 10
1304.2646197697
 20
-506.1366197293
 10
1304.2646197697
 20
-505.2317197019
 10
1304.6134219268
 20
-504.3495074074
 10
1305.2935358443
 20
-503.5342206541
 10
1306.2708577706
 20
-502.8267413242
 10
1307.4963807033
 20
-502.2625453854
 10
1308.9086518052
 20
-501.869923978
 10
1310.4368539062
 20
-501.6685647787
 10
1312.0043565716
 20
-501.6685647787
 10
1313.5325586726
 20
-501.869923978
 10
1314.9448297745
 20
-502.2625453854
 10
1316.1703527072
 20
-502.8267413242
 10
1317.1476746335
 20
-503.5342206541
 10
1317.8277885511
 20
-504.3495074074
 10
1318.1765907082
 20
-505.2317197019
 10
1318.1765907082
 20
-506.1366197293
 10
1317.8277885511
 20
-507.0188320238
 10
1317.1476746335
 20
-507.834118777
 10
1316.1703527072
 20
-508.541598107
 10
1314.9448297745
 20
-509.1057940458
 10
1313.5325586726
 20
-509.4984154532
 10
1312.0043565716
 20
-509.6997746524
 10
1310.4368539062
 20
-509.6997746524
 10
1308.9086518052
 20
-509.4984154532
 10
1307.4963807033
 20
-509.1057940458
 10
1306.2708577706
 20
-508.541598107
  0
LWPOLYLINE
  5
123
330
1F
100
AcDbEntity
  8
0
  6
Continuous
 62
     7
370
    25
100
AcDbPolyline
 90
       24
 70
   128
 43
0.0
 10
1307.685071333
 20
-507.7251899951
 10
1306.8623028888
 20
-507.0988427453
 10
1306.3627697919
 20
-506.3675756685
 10
1306.2235201271
 20
-505.5856234986
 10
1306.4548814049
 20
-504.8109800508
 10
1307.0396946177
 20
-504.1010970859
 10
1307.9345868448
 20
-503.5086233758
 10
1309.0731880238
 20
-503.0774999852
 10
1310.3710533138
 20
-502.8397013639
 10
1311.7319259836
 20
-502.8128639476
 10
1313.054876333
 20
-502.9989781448
 10
1314.2417871865
 20
-503.3842407168
 10
1315.204630796
 20
-503.9400785012
 10
1315.8719974556
 20
-504.6252675523
 10
1316.1943916332
 20
-505.3889905327
 10
1316.1479028275
 20
-506.1746056027
 10
1315.7359789005
 20
-506.9238472866
 10
1314.9891703656
 20
-507.5811477562
 10
1313.9628645952
 20
-508.0977580426
 10
1312.7331779933
 20
-508.4353635242
 10
1311.3913107899
 20
-508.5689255469
 10
1310.0367831366
 20
-508.4885384265
 10
1308.770054153
 20
-508.2001641079
 10
1307.685071333
 20
-507.7251899951
  0
SPLINE
  5
124
330
1F
100
AcDbEntity
  8
0
  6
Continuous
 62
     7
370
    25
100
AcDbSpline
210
0.0
220
0.0
230
1.0
 70
     8
 71
     3
 72
    11
 73
     7
 74
     0
 42
0.00000001
 43
0.00000001
 40
0.0
 40
0.0
 40
0.0
 40
0.0
 40
0.2926013649275943
 40
0.6445138275191414
 40
0.9977007135367484
 40
1.0
 40
1.0
 40
1.0
 40
1.0
 10
1308.684409289049
 20
-508.1626903137433
 30
0.0
 10
1309.099585791896
 20
-508.050989166073
 30
0.0
 10
1310.014096211258
 20
-507.8049447423185
 30
0.0
 10
1311.615331184468
 20
-507.868992116856
 30
0.0
 10
1312.785898214275
 20
-508.0369366987657
 30
0.0
 10
1313.254036203765
 20
-508.2614820553668
 30
0.0
 10
1313.257064122782
 20
-508.262934415933
 30
0.0
  0
LWPOLYLINE
  5
125
330
1F
100
AcDbEntity
  8
0
  6
Continuous
 62
     7
370
    25
100
AcDbPolyline
 90
       29
 70
   128
 43
0.0
 10
1266.6728780242
 20
-474.2524574104
 10
1267.6501999505
 20
-474.9599367403
 10
1268.330313868
 20
-475.7752234936
 10
1268.6791160251
 20
-476.6574357881
 10
1268.6791160251
 20
-477.5623358155
 10
1268.330313868
 20
-478.44454811
 10
1267.6501999505
 20
-479.2598348632
 10
1266.6728780242
 20
-479.9673141932
 10
1265.4473550915
 20
-480.531510132
 10
1264.0350839896
 20
-480.9241315394
 10
1262.5068818886
 20
-481.1254907386
 10
1260.9393792231
 20
-481.1254907386
 10
1259.4111771222
 20
-480.9241315394
 10
1257.9989060203
 20
-480.531510132
 10
1256.7733830876
 20
-479.9673141932
 10
1255.7960611613
 20
-479.2598348632
 10
1255.1159472437
 20
-478.44454811
 10
1254.7671450866
 20
-477.5623358155
 10
1254.7671450866
 20
-476.6574357881
 10
1255.1159472437
 20
-475.7752234936
 10
1255.7960611613
 20
-474.9599367403
 10
1256.7733830876
 20
-474.2524574104
 10
1257.9989060203
 20
-473.6882614716
 10
1259.4111771222
 20
-473.2956400642
 10
1260.9393792231
 20
-473.0942808649
 10
1262.5068818886
 20
-473.0942808649
 10
1264.0350839896
 20
-473.2956400642
 10
1265.4473550915
 20
-473.6882614716
 10
1266.6728780242
 20
-474.2524574104
  0
LWPOLYLINE
  5
126
330
1F
100
AcDbEntity
  8
0
  6
Continuous
 62
     7
370
    25
100
AcDbPolyline
 90
       24
 70
   128
 43
0.0
 10
1265.2586644618
 20
-475.0688655222
 10
1266.081432906
 20
-475.6952127721
 10
1266.5809660029
 20
-476.4264798488
 10
1266.7202156677
 20
-477.2084320187
 10
1266.4888543899
 20
-477.9830754665
 10
1265.9040411771
 20
-478.6929584315
 10
1265.00914895
 20
-479.2854321416
 10
1263.870547771
 20
-479.7165555321
 10
1262.572682481
 20
-479.9543541535
 10
1261.2118098112
 20
-479.9811915697
 10
1259.8888594618
 20
-479.7950773726
 10
1258.7019486083
 20
-479.4098148005
 10
1257.7391049988
 20
-478.8539770161
 10
1257.0717383392
 20
-478.168787965
 10
1256.7493441616
 20
-477.4050649846
 10
1256.7958329673
 20
-476.6194499146
 10
1257.2077568942
 20
-475.8702082308
 10
1257.9545654292
 20
-475.2129077612
 10
1258.9808711996
 20
-474.6962974748
 10
1260.2105578015
 20
-474.3586919932
 10
1261.5524250049
 20
-474.2251299705
 10
1262.9069526582
 20
-474.3055170909
 10
1264.1736816418
 20
-474.5938914095
 10
1265.2586644618
 20
-475.0688655222
  0
LWPOLYLINE
  5
127
330
1F
100
AcDbEntity
  8
0
  6
Continuous
 62
     1
370
    25
100
AcDbPolyline
 90
      103
 70
   128
 43
0.0
 10
946.0341365939
 20
-567.9746705913
 10
950.2906431542
 20
-565.6303861822
 10
956.1349801827
 20
-562.7608327785
 10
962.1446367433
 20
-560.1996238791
 10
968.3137988814
 20
-557.9492372883
 10
974.6364983312
 20
-556.0118501096
 10
981.1066182892
 20
-554.38933664
 10
987.7178993322
 20
-553.0832665566
 10
994.4639454728
 20
-552.0949033978
 10
1001.3382303471
 20
-551.4252033412
 10
1008.3341035285
 20
-551.0748142782
 10
1015.4447969613
 20
-551.0440751876
 10
1022.663431509
 20
-551.3330158077
 10
1029.9830236089
 20
-551.9413566068
 10
1037.3964920283
 20
-552.8685090548
 10
1044.8966647153
 20
-554.1135761913
 10
1052.4762857373
 20
-555.6753534944
 10
1060.1280223003
 20
-557.5523300454
 10
1067.8444718436
 20
-559.7426899906
 10
1075.6181692004
 20
-562.2443142985
 10
1083.4415938208
 20
-565.0547828088
 10
1091.3071770465
 20
-568.171376575
 10
1099.2073094339
 20
-571.5910804938
 10
1107.134348115
 20
-575.3105862225
 10
1115.0806241919
 20
-579.3262953795
 10
1123.0384501558
 20
-583.6343230257
 10
1131.0001273239
 20
-588.2305014224
 10
1138.9579532877
 20
-593.110384064
 10
1146.9042293647
 20
-598.269249979
 10
1154.8312680458
 20
-603.702108298
 10
1162.7314004332
 20
-609.4037030814
 10
1170.5969836589
 20
-615.3685184044
 10
1178.4204082792
 20
-621.5907836935
 10
1186.1941056361
 20
-628.0644793089
 10
1193.9105551793
 20
-634.7833423681
 10
1201.5622917424
 20
-641.7408728051
 10
1209.1419127644
 20
-648.9303396584
 10
1216.6420854514
 20
-656.3447875834
 10
1224.0555538708
 20
-663.9770435804
 10
1231.3751459706
 20
-671.8197239347
 10
1238.5937805184
 20
-679.8652413595
 10
1245.7044739512
 20
-688.1058123364
 10
1252.7003471325
 20
-696.5334646452
 10
1259.5746320068
 20
-705.1400450765
 10
1266.3206781475
 20
-713.9172273196
 10
1272.9319591905
 20
-722.8565200175
 10
1279.4020791485
 20
-731.949274982
 10
1285.7247785982
 20
-741.1866955598
 10
1291.8939407364
 20
-750.5598451431
 10
1297.903597297
 20
-760.059655815
 10
1303.7479343254
 20
-769.6769371223
 10
1309.4212978031
 20
-779.4023849664
 10
1314.9181991173
 20
-789.2265906047
 10
1320.2333203709
 20
-799.1400497526
 10
1325.3615195275
 20
-809.1331717786
 10
1330.2978353855
 20
-819.1962889827
 10
1335.0374923782
 20
-829.3196659489
 10
1339.5759051935
 20
-839.4935089636
 10
1343.9086832101
 20
-849.707975491
 10
1348.0316347451
 20
-859.9531836942
 10
1351.9407711093
 20
-870.2192219961
 10
1355.6323104656
 20
-880.4961586677
 10
1359.1026814881
 20
-890.7740514363
 10
1362.3485268169
 20
-901.0429571046
 10
1365.3667063065
 20
-911.2929411694
 10
1368.1543000629
 20
-921.5140874333
 10
1370.7086112694
 20
-931.6965075974
 10
1373.0271687948
 20
-941.8303508277
 10
1375.1077295843
 20
-951.9058132853
 10
1376.9482808299
 20
-961.9131476112
 10
1378.5470419171
 20
-971.8426723556
 10
1379.9024661477
 20
-981.6847813446
 10
1381.0132422363
 20
-991.4299529735
 10
1381.8782955789
 20
-1001.068759418
 10
1382.4967892922
 20
-1010.5918757555
 10
1382.8681250235
 20
-1019.9900889859
 10
1382.9919435294
 20
-1029.2543069449
 10
1382.8681250235
 20
-1038.3755670999
 10
1382.4967892922
 20
-1047.3450452209
 10
1381.8782955789
 20
-1056.154063917
 10
1381.0132422363
 20
-1064.7941010316
 10
1379.9024661477
 20
-1073.2567978867
 10
1378.5470419171
 20
-1081.5339673698
 10
1376.9482808299
 20
-1089.6176018538
 10
1375.1077295843
 20
-1097.4998809446
 10
1373.0271687948
 20
-1105.1731790462
 10
1370.7086112694
 20
-1112.6300727382
 10
1368.1543000629
 20
-1119.8633479575
 10
1365.3667063065
 20
-1126.8660069776
 10
1362.3485268169
 20
-1133.6312751782
 10
1359.1026814881
 20
-1140.152607599
 10
1355.6323104656
 20
-1146.4236952723
 10
1351.9407711093
 20
-1152.4384713257
 10
1348.0316347451
 20
-1158.1911168519
 10
1343.9086832101
 20
-1163.6760665377
 10
1339.5759051935
 20
-1168.8880140487
 10
1335.0374923782
 20
-1173.8219171622
 10
1330.2978353855
 20
-1178.4730026456
 10
1325.3615195275
 20
-1182.836770874
 10
1320.2333203709
 20
-1186.9090001837
 10
1314.9181991173
 20
-1190.6857509556
 10
1309.4212978031
 20
-1194.1633694274
 10
1308.0045769157
 20
-1194.9941282903
  0
LWPOLYLINE
  5
128
330
1F
100
AcDbEntity
  8
0
  6
Continuous
 62
     1
370
    25
100
AcDbPolyline
 90
      103
 70
   128
 43
0.0
 10
977.8538032861
 20
-549.6055680072
 10
982.1104483076
 20
-547.2612036662
 10
987.9547853361
 20
-544.3916502625
 10
993.9644418967
 20
-541.8304413631
 10
1000.1336040348
 20
-539.5800547723
 10
1006.4563034846
 20
-537.6426675936
 10
1012.9264234426
 20
-536.020154124
 10
1019.5377044856
 20
-534.7140840406
 10
1026.2837506262
 20
-533.7257208818
 10
1033.1580355005
 20
-533.0560208252
 10
1040.1539086819
 20
-532.7056317622
 10
1047.2646021147
 20
-532.6748926716
 10
1054.4832366624
 20
-532.9638332916
 10
1061.8028287623
 20
-533.5721740908
 10
1069.2162971817
 20
-534.4993265387
 10
1076.7164698687
 20
-535.7443936753
 10
1084.2960908906
 20
-537.3061709784
 10
1091.9478274537
 20
-539.1831475293
 10
1099.664276997
 20
-541.3735074746
 10
1107.4379743538
 20
-543.8751317824
 10
1115.2613989742
 20
-546.6856002928
 10
1123.1269821999
 20
-549.802194059
 10
1131.0271145873
 20
-553.2218979778
 10
1138.9541532684
 20
-556.9414037065
 10
1146.9004293453
 20
-560.9571128635
 10
1154.8582553092
 20
-565.2651405097
 10
1162.8199324773
 20
-569.8613189064
 10
1170.7777584411
 20
-574.741201548
 10
1178.7240345181
 20
-579.900067463
 10
1186.6510731992
 20
-585.332925782
 10
1194.5512055866
 20
-591.0345205654
 10
1202.4167888123
 20
-596.9993358884
 10
1210.2402134326
 20
-603.2216011775
 10
1218.0139107895
 20
-609.6952967929
 10
1225.7303603327
 20
-616.4141598521
 10
1233.3820968958
 20
-623.371690289
 10
1240.9617179178
 20
-630.5611571424
 10
1248.4618906048
 20
-637.9756050674
 10
1255.8753590242
 20
-645.6078610644
 10
1263.194951124
 20
-653.4505414187
 10
1270.4135856718
 20
-661.4960588435
 10
1277.5242791046
 20
-669.7366298204
 10
1284.5201522859
 20
-678.1642821292
 10
1291.3944371602
 20
-686.7708625605
 10
1298.1404833009
 20
-695.5480448036
 10
1304.7517643439
 20
-704.4873375015
 10
1311.2218843019
 20
-713.580092466
 10
1317.5445837516
 20
-722.8175130438
 10
1323.7137458898
 20
-732.1906626271
 10
1329.7234024504
 20
-741.690473299
 10
1335.5677394788
 20
-751.3077546063
 10
1341.2411029565
 20
-761.0332024504
 10
1346.7380042707
 20
-770.8574080887
 10
1352.0531255243
 20
-780.7708672366
 10
1357.1813246809
 20
-790.7639892626
 10
1362.1176405389
 20
-800.8271064667
 10
1366.8572975316
 20
-810.9504834329
 10
1371.3957103469
 20
-821.1243264476
 10
1375.7284883635
 20
-831.338792975
 10
1379.8514398985
 20
-841.5840011782
 10
1383.7605762627
 20
-851.8500394801
 10
1387.452115619
 20
-862.1269761516
 10
1390.9224866414
 20
-872.4048689203
 10
1394.1683319703
 20
-882.6737745885
 10
1397.1865114599
 20
-892.9237586534
 10
1399.9741052163
 20
-903.1449049173
 10
1402.5284164228
 20
-913.3273250814
 10
1404.8469739482
 20
-923.4611683116
 10
1406.9275347377
 20
-933.5366307693
 10
1408.7680859833
 20
-943.5439650952
 10
1410.3668470704
 20
-953.4734898396
 10
1411.7222713011
 20
-963.3155988286
 10
1412.8330473897
 20
-973.0607704575
 10
1413.6981007323
 20
-982.699576902
 10
1414.3165944456
 20
-992.2226932395
 10
1414.6879301769
 20
-1001.6209064699
 10
1414.8117486828
 20
-1010.8851244289
 10
1414.6879301769
 20
-1020.0063845839
 10
1414.3165944456
 20
-1028.9758627049
 10
1413.6981007323
 20
-1037.784881401
 10
1412.8330473897
 20
-1046.4249185156
 10
1411.7222713011
 20
-1054.8876153707
 10
1410.3668470704
 20
-1063.1647848538
 10
1408.7680859833
 20
-1071.2484193378
 10
1406.9275347377
 20
-1079.1306984286
 10
1404.8469739482
 20
-1086.8039965302
 10
1402.5284164228
 20
-1094.2608902221
 10
1399.9741052163
 20
-1101.4941654415
 10
1397.1865114599
 20
-1108.4968244616
 10
1394.1683319703
 20
-1115.2620926621
 10
1390.9224866414
 20
-1121.783425083
 10
1387.452115619
 20
-1128.0545127563
 10
1383.7605762627
 20
-1134.0692888097
 10
1379.8514398985
 20
-1139.8219343358
 10
1375.7284883635
 20
-1145.3068840217
 10
1371.3957103469
 20
-1150.5188315327
 10
1366.8572975316
 20
-1155.4527346461
 10
1362.1176405389
 20
-1160.1038201295
 10
1357.1813246809
 20
-1164.467588358
 10
1352.0531255243
 20
-1168.5398176677
 10
1346.7380042707
 20
-1172.3165684396
 10
1341.2411029565
 20
-1175.7941869114
 10
1339.8243845004
 20
-1176.6249443708
  0
ENDSEC
  0
SECTION
  2
OBJECTS
  0
DICTIONARY
  5
C
330
0
100
AcDbDictionary
281
     1
  3
ACAD_GROUP
350
D
  3
ACAD_LAYOUT
350
1A
  3
ACAD_MLINESTYLE
350
17
  3
ACAD_PLOTSETTINGS
350
19
  3
ACAD_PLOTSTYLENAME
350
E
  3
ACAD_SCALELIST
350
47
  3
DWGPROPS
350
129
  0
DICTIONARY
  5
D
102
{ACAD_REACTORS
330
C
102
}
330
C
100
AcDbDictionary
281
     1
  0
DICTIONARY
  5
1A
102
{ACAD_REACTORS
330
C
102
}
330
C
100
AcDbDictionary
281
     1
  3
Layout1
350
1E
  3
Layout2
350
26
  3
Model
350
22
  0
DICTIONARY
  5
17
102
{ACAD_REACTORS
330
C
102
}
330
C
100
AcDbDictionary
281
     1
  3
Standard
350
18
  0
DICTIONARY
  5
19
102
{ACAD_REACTORS
330
C
102
}
330
C
100
AcDbDictionary
281
     1
  0
ACDBDICTIONARYWDFLT
  5
E
102
{ACAD_REACTORS
330
C
102
}
330
C
100
AcDbDictionary
281
     1
  3
Normal
350
F
100
AcDbDictionaryWithDefault
340
F
  0
DICTIONARY
  5
47
102
{ACAD_REACTORS
330
C
102
}
330
C
100
AcDbDictionary
281
     1
  3
A0
350
48
  3
A1
350
49
  3
A2
350
4A
  3
A3
350
4B
  3
A4
350
4C
  3
A5
350
4D
  3
A6
350
4E
  3
A7
350
4F
  3
A8
350
50
  3
A9
350
51
  3
B0
350
52
  3
B1
350
53
  3
B2
350
54
  3
B3
350
55
  3
B4
350
56
  3
B5
350
57
  3
B6
350
58
  3
B7
350
59
  3
B8
350
5A
  3
B9
350
5B
  3
C0
350
5C
  3
C1
350
5D
  3
C2
350
5E
  3
C3
350
5F
  3
C4
350
60
  3
C5
350
61
  3
C6
350
62
  3
C7
350
63
  3
C8
350
64
  3
C9
350
65
  3
D0
350
66
  3
D1
350
67
  3
D2
350
68
  0
XRECORD
  5
129
102
{ACAD_REACTORS
330
C
102
}
330
C
100
AcDbXrecord
280
     1
  1
DWGPROPS COOKIE
  2

  3

  4

  6

  7

  8
b.kav
  9

300
=
301
=
302
=
303
=
304
=
305
=
306
=
307
=
308
=
309
=
 40
0.0
 41
2459741.476737083
 42
2459741.476737269
  1

 90
        0
  0
LAYOUT
  5
1E
102
{ACAD_REACTORS
330
1A
102
}
330
1A
100
AcDbPlotSettings
  1

  2
none_device
  4

  6

 40
0.0
 41
0.0
 42
0.0
 43
0.0
 44
0.0
 45
0.0
 46
0.0
 47
0.0
 48
0.0
 49
0.0
140
0.0
141
0.0
142
1.0
143
1.0
 70
   688
 72
     1
 73
     0
 74
     5
  7

 75
    16
147
1.0
148
0.0
149
0.0
100
AcDbLayout
  1
Layout1
 70
     1
 71
     1
 10
0.0
 20
0.0
 11
420.0
 21
297.0
 12
0.0
 22
0.0
 32
0.0
 14
1.0000000000E+20
 24
1.0000000000E+20
 34
1.0000000000E+20
 15
-1.0000000000E+20
 25
-1.0000000000E+20
 35
-1.0000000000E+20
146
0.0
 13
0.0
 23
0.0
 33
0.0
 16
1.0
 26
0.0
 36
0.0
 17
0.0
 27
1.0
 37
0.0
 76
     0
330
1B
  0
LAYOUT
  5
26
102
{ACAD_REACTORS
330
1A
102
}
330
1A
100
AcDbPlotSettings
  1

  2
none_device
  4

  6

 40
0.0
 41
0.0
 42
0.0
 43
0.0
 44
0.0
 45
0.0
 46
0.0
 47
0.0
 48
0.0
 49
0.0
140
0.0
141
0.0
142
1.0
143
1.0
 70
   688
 72
     1
 73
     0
 74
     5
  7

 75
    16
147
1.0
148
0.0
149
0.0
100
AcDbLayout
  1
Layout2
 70
     1
 71
     2
 10
0.0
 20
0.0
 11
0.0
 21
0.0
 12
0.0
 22
0.0
 32
0.0
 14
0.0
 24
0.0
 34
0.0
 15
0.0
 25
0.0
 35
0.0
146
0.0
 13
0.0
 23
0.0
 33
0.0
 16
1.0
 26
0.0
 36
0.0
 17
0.0
 27
1.0
 37
0.0
 76
     0
330
23
  0
LAYOUT
  5
22
102
{ACAD_REACTORS
330
1A
102
}
330
1A
100
AcDbPlotSettings
  1

  2
none_device
  4
Letter_(8.50_x_11.00_Inches)
  6

 40
6.35
 41
6.35
 42
6.35000508
 43
6.35000508
 44
215.9
 45
279.4
 46
0.0
 47
0.0
 48
0.0
 49
0.0
140
0.0
141
0.0
142
1.0
143
1.0
 70
  1712
 72
     1
 73
     0
 74
     0
  7

 75
     0
147
1.0
148
0.0
149
0.0
100
AcDbLayout
  1
Model
 70
     1
 71
     0
 10
0.0
 20
0.0
 11
279.4
 21
215.9
 12
0.0
 22
0.0
 32
0.0
 14
0.0
 24
0.0
 34
0.0
 15
279.4
 25
215.9
 35
0.0
146
0.0
 13
0.0
 23
0.0
 33
0.0
 16
1.0
 26
0.0
 36
0.0
 17
0.0
 27
1.0
 37
0.0
 76
     0
330
1F
331
29
  0
MLINESTYLE
  5
18
102
{ACAD_REACTORS
330
17
102
}
330
17
100
AcDbMlineStyle
  2
Standard
 70
     0
  3

 62
   256
 51
90.0
 52
90.0
 71
     2
 49
0.5
 62
   256
  6
BYLAYER
 49
-0.5
 62
   256
  6
BYLAYER
  0
ACDBPLACEHOLDER
  5
F
102
{ACAD_REACTORS
330
E
102
}
330
E
  0
SCALE
  5
48
102
{ACAD_REACTORS
330
47
102
}
330
47
100
AcDbScale
 70
     0
300
1:1
140
1.0
141
1.0
290
     1
  0
SCALE
  5
49
102
{ACAD_REACTORS
330
47
102
}
330
47
100
AcDbScale
 70
     0
300
1:2
140
1.0
141
2.0
290
     0
  0
SCALE
  5
4A
102
{ACAD_REACTORS
330
47
102
}
330
47
100
AcDbScale
 70
     0
300
1:4
140
1.0
141
4.0
290
     0
  0
SCALE
  5
4B
102
{ACAD_REACTORS
330
47
102
}
330
47
100
AcDbScale
 70
     0
300
1:5
140
1.0
141
5.0
290
     0
  0
SCALE
  5
4C
102
{ACAD_REACTORS
330
47
102
}
330
47
100
AcDbScale
 70
     0
300
1:8
140
1.0
141
8.0
290
     0
  0
SCALE
  5
4D
102
{ACAD_REACTORS
330
47
102
}
330
47
100
AcDbScale
 70
     0
300
1:10
140
1.0
141
10.0
290
     0
  0
SCALE
  5
4E
102
{ACAD_REACTORS
330
47
102
}
330
47
100
AcDbScale
 70
     0
300
1:16
140
1.0
141
16.0
290
     0
  0
SCALE
  5
4F
102
{ACAD_REACTORS
330
47
102
}
330
47
100
AcDbScale
 70
     0
300
1:20
140
1.0
141
20.0
290
     0
  0
SCALE
  5
50
102
{ACAD_REACTORS
330
47
102
}
330
47
100
AcDbScale
 70
     0
300
1:30
140
1.0
141
30.0
290
     0
  0
SCALE
  5
51
102
{ACAD_REACTORS
330
47
102
}
330
47
100
AcDbScale
 70
     0
300
1:40
140
1.0
141
40.0
290
     0
  0
SCALE
  5
52
102
{ACAD_REACTORS
330
47
102
}
330
47
100
AcDbScale
 70
     0
300
1:50
140
1.0
141
50.0
290
     0
  0
SCALE
  5
53
102
{ACAD_REACTORS
330
47
102
}
330
47
100
AcDbScale
 70
     0
300
1:100
140
1.0
141
100.0
290
     0
  0
SCALE
  5
54
102
{ACAD_REACTORS
330
47
102
}
330
47
100
AcDbScale
 70
     0
300
2:1
140
2.0
141
1.0
290
     0
  0
SCALE
  5
55
102
{ACAD_REACTORS
330
47
102
}
330
47
100
AcDbScale
 70
     0
300
4:1
140
4.0
141
1.0
290
     0
  0
SCALE
  5
56
102
{ACAD_REACTORS
330
47
102
}
330
47
100
AcDbScale
 70
     0
300
8:1
140
8.0
141
1.0
290
     0
  0
SCALE
  5
57
102
{ACAD_REACTORS
330
47
102
}
330
47
100
AcDbScale
 70
     0
300
10:1
140
10.0
141
1.0
290
     0
  0
SCALE
  5
58
102
{ACAD_REACTORS
330
47
102
}
330
47
100
AcDbScale
 70
     0
300
100:1
140
100.0
141
1.0
290
     0
  0
SCALE
  5
59
102
{ACAD_REACTORS
330
47
102
}
330
47
100
AcDbScale
 70
     0
300
1/128" = 1'-0"
140
0.0078125
141
12.0
290
     0
  0
SCALE
  5
5A
102
{ACAD_REACTORS
330
47
102
}
330
47
100
AcDbScale
 70
     0
300
1/64" = 1'-0"
140
0.015625
141
12.0
290
     0
  0
SCALE
  5
5B
102
{ACAD_REACTORS
330
47
102
}
330
47
100
AcDbScale
 70
     0
300
1/32" = 1'-0"
140
0.03125
141
12.0
290
     0
  0
SCALE
  5
5C
102
{ACAD_REACTORS
330
47
102
}
330
47
100
AcDbScale
 70
     0
300
1/16" = 1'-0"
140
0.0625
141
12.0
290
     0
  0
SCALE
  5
5D
102
{ACAD_REACTORS
330
47
102
}
330
47
100
AcDbScale
 70
     0
300
3/32" = 1'-0"
140
0.09375
141
12.0
290
     0
  0
SCALE
  5
5E
102
{ACAD_REACTORS
330
47
102
}
330
47
100
AcDbScale
 70
     0
300
1/8" = 1'-0"
140
0.125
141
12.0
290
     0
  0
SCALE
  5
5F
102
{ACAD_REACTORS
330
47
102
}
330
47
100
AcDbScale
 70
     0
300
3/16" = 1'-0"
140
0.1875
141
12.0
290
     0
  0
SCALE
  5
60
102
{ACAD_REACTORS
330
47
102
}
330
47
100
AcDbScale
 70
     0
300
1/4" = 1'-0"
140
0.25
141
12.0
290
     0
  0
SCALE
  5
61
102
{ACAD_REACTORS
330
47
102
}
330
47
100
AcDbScale
 70
     0
300
3/8" = 1'-0"
140
0.375
141
12.0
290
     0
  0
SCALE
  5
62
102
{ACAD_REACTORS
330
47
102
}
330
47
100
AcDbScale
 70
     0
300
1/2" = 1'-0"
140
0.5
141
12.0
290
     0
  0
SCALE
  5
63
102
{ACAD_REACTORS
330
47
102
}
330
47
100
AcDbScale
 70
     0
300
3/4" = 1'-0"
140
0.75
141
12.0
290
     0
  0
SCALE
  5
64
102
{ACAD_REACTORS
330
47
102
}
330
47
100
AcDbScale
 70
     0
300
1" = 1'-0"
140
1.0
141
12.0
290
     0
  0
SCALE
  5
65
102
{ACAD_REACTORS
330
47
102
}
330
47
100
AcDbScale
 70
     0
300
1-1/2" = 1'-0"
140
1.5
141
12.0
290
     0
  0
SCALE
  5
66
102
{ACAD_REACTORS
330
47
102
}
330
47
100
AcDbScale
 70
     0
300
3" = 1'-0"
140
3.0
141
12.0
290
     0
  0
SCALE
  5
67
102
{ACAD_REACTORS
330
47
102
}
330
47
100
AcDbScale
 70
     0
300
6" = 1'-0"
140
6.0
141
12.0
290
     0
  0
SCALE
  5
68
102
{ACAD_REACTORS
330
47
102
}
330
47
100
AcDbScale
 70
     0
300
1'-0" = 1'-0"
140
12.0
141
12.0
290
     0
  0
ENDSEC
  0
EOF
